» » »

Castaway Bass tabs (ver.1)

Artists:  A B C D E F G H I J K L M N O P Q R S T U V W X Y Z # 

Castaway Bass tabs (ver.1)

Green Day
Rating:
0/5 (0 votes)

Hard to play? Try these video lessons and learn fast.
                
Tuning:
  Intro 
G|----------------|
D|---2---1h2------|
A|-2---2-----2p0--|
E|----------------|
  Pre Verse
G|--------------------------------------------------------------------------|
D|--------------------------------------------------------------------------|
A|-2-2-2-2-2-----------------2-2-1-2-2-2-2-2-----------------2-2-1----------|
E|-----------4-4-4-0-0-0-0-0-----------------4-4-4-0-0-0-0-0----------------|
  Verse
G|--------------------------------------------------------------------------|
D|--------------------------------------------------------------------------|
A|-2-2-2-2-2-----------------2-2-1-2-2-2-2-2-----------------2-2-1----------|
E|-----------4-4-4-0-0-0-0-0-----------------4-4-4-0-0-0-0-0----------------|

G|--------------------------------------------------------------------------|
D|-----1-1------------------------------------------------------------------|
A|-2-2-----2-----------------2-2-1-2-2-2-2-2-----------------2-2-2-2-2-2-2-2|
E|-----------4-4-4-0-0-0-0-0-----------------4-4-4-0-0-0-0-0----------------|
  Pre Chorus
G|--------------------------------------------------------------------------|
D|--------------------------------------------------------------------------|
A|-777777777777777------------------2--22-22-1-2--2--22-22------------------|
E|-----------------0000000000000000------------------------4----------------|

G|---------------------------------------R-|
D|------------------222222222222222--4~--E-|
A|---------------------------------------S-|
E|-0000000000000000----------------------T-|
  Chorus
G|--------------------------------------------------------------------------|
D|--------------------------------------1-1---------------------2---1h2-----|
A|-2-2-2-2-2-----------------2-2-1--2-2-----2-----------------2---2-----2p0-|
E|-----------4-4-4-0-0-0-0-0------------------4-4-4-0-0-0-0-0---------------|

G|--------------------------------------------------------------------------|
D|--------------------------------------1-1---------------------------------|
A|-2-2-2-2-2-----------------2-2-1--2-2-----2-----------------2-2-1---------|
E|-----------4-4-4-0-0-0-0-0------------------4-4-4-0-0-0-0-0---------------|
  Post Chorus ("Lost And Found...")
G|----------------|
D|----------------|
A|----------------|
E|-0~--22222~-----|
  Pre Verse2
G|--------------------------------------------------------------------------|
D|--------------------------------------1-1---------------------------------|
A|-2-2-2-2-2-----------------2-2-1--2-2-----2-----------------2-2-2---------|
E|-----------4-4-4-0-0-0-0-0------------------4-4-4-0-0-0-0-0---------------|
  Verse 2
G|--------------------------------------------------------------------------|
D|--------------------------------------------------------------------------|
A|-2-2-2-2-2-----------------2-2-1-2-2-2-2-2-----------------2-2-1----------|
E|-----------4-4-4-0-0-0-0-0-----------------4-4-4-0-0-0-0-0----------------|

G|--------------------------------------------------------------------------|
D|---1-1--------------------------------1-1---------------------------------|
A|-2-----2-2-----------------2-2-1--2-2-----2-----------------2-2-2-2-2-2-2-|
E|-----------4-4-4-0-0-0-0-0------------------4-4-4-0-0-0-0-0---------------|

Pre Chorus
G|--------------------------------------------------------------------------|
D|--------------------------------------------------------------------------|
A|-777777777777777------------------2--22-22-1-2--2--22-22------------------|
E|-----------------0000000000000000------------------------4----------------|

G|---------------------------------------R-|
D|------------------222222222222222--4~--E-|
A|---------------------------------------S-|
E|-0000000000000000----------------------T-|

 Chorus
G|--------------------------------------------------------------------------|
D|--------------------------------------1-1---------------------2---1h2-----|
A|-2-2-2-2-2-----------------2-2-1--2-2-----2-----------------2---2-----2p0-|
E|-----------4-4-4-0-0-0-0-0------------------4-4-4-0-0-0-0-0---------------|

G|--------------------------------------------------------------------------|
D|--------------------------------------1-1---------------------------------|
A|-2-2-2-2-2-----------------2-2-1--2-2-----2-----------------2-2-2-2-2-2-2-|
E|-----------4-4-4-0-0-0-0-0------------------4-4-4-0-0-0-0-0---------------|

Post Chorus ("Lost And Found...")
G|----------------|
D|----------------|
A|----------------|
E|-0~--22222~-----|

G|--------------------------------------------------------------------------|
D|--------------------------------------1-1---------------------2---1h2-----|
A|-2-2-2-2-2-----------------2-2-1--2-2-----2-----------------2---2-----2p0-|
E|-----------4-4-4-0-0-0-0-0------------------4-4-4-0-0-0-0-0---------------|

G|--------------------------------------------------------------------------|
D|-----1-1-------------------------------1-1--------------------------------|
A|-2-2-----2-------------------2-2-1-2-2-----2-----------------2-2-2-2-2-2-2|
E|-----------4-4-4-4-0-0-0-0-0-----------------4-4-4-0-0-0-0-0--------------|
                   ^ REMEMBER TO PLAY 4th 4!!!!!

 Bridge (guitar solo)
G|----------------------------------------------------|
D|----------------------------------------------------|
A|----------------------------------------------------|
E|-0-0-0-0-0--9-9-9-9-9/12-12-12-12-12/14-14-14-14-14-|

  Bass Solo (X2)
G|--------------------------------------------------------------------------|
D|-------------------------------------1-1-------4---------------2---1h2----|
A|-2-2-2-2-2-----------------2-2-1-2-2-----2-------------------2---2-----2p0|
E|-----------2-2-2-0-0-0-0-0------------------02---2-0-0-0-0-0--------------|

  ........then play..........
G|--------------------------------------------------------------------------|
D|-----1-1-------------------------------1-1-------4------------------------|
A|-2-2-----2-------------------2-2-1-2-2-----2-------------------2-2-2-2-2-2|
E|-----------2-2-2-2-0-0-0-0-0------------------02---2-0-0-0-0-0------------|

Pre Chorus
G|--------------------------------------------------------------------------|
D|--------------------------------------------------------------------------|
A|-777777777777777------------------2--22-22-1-2--2--22-22------------------|
E|-----------------0000000000000000------------------------4----------------|

G|---------------------------------------R-|
D|------------------222222222222222--4~--E-|
A|---------------------------------------S-|
E|-0000000000000000----------------------T-|

Chorus
G|--------------------------------------------------------------------------|
D|--------------------------------------1-1---------------------2---1h2-----|
A|-2-2-2-2-2-----------------2-2-1--2-2-----2-----------------2---2-----2p0-|
E|-----------4-4-4-0-0-0-0-0------------------4-4-4-0-0-0-0-0---------------|

G|--------------------------------------------------------------------------|
D|--------------------------------------1-1---------------------------------|
A|-2-2-2-2-2-----------------2-2-1--2-2-----2-----------------2-2-2-2-2-2-2-|
E|-----------4-4-4-0-0-0-0-0------------------4-4-4-0-0-0-0-0---------------|
  "Lost and Found..."
G|------------------------------------|
D|------------------------------------|
A|------------------------------------|
E|-0-0-0-0-0-0-0-0-2-2-2-2-2-2-2-2-2--|

G|--------------------------------------------------------------------------|
D|--------------------------------------1-1---------------------2---1h2-----|
A|-2-2-2-2-2-----------------2-2-1--2-2-----2-----------------2---2-----2p0-|
E|-----------4-4-4-0-0-0-0-0------------------4-4-4-0-0-0-0-0---------------|

G|--------------------------------------------------------------------------|
D|-----1-1-------------------------------1-1--------------------------------|
A|-2-2-----2-------------------2-2-1-2-2-----2-----------------2-2-2~-------|
E|-----------4-4-4-4-0-0-0-0-0-----------------4-4-4-0-0-0-0-0--------------|
                   ^ REMEMBER TO PLAY 4th 4!!!!!

 /  slide up
| \  slide down
| h  hammer-on
| p  pull-off
| ~  vibrato
| +  harmonic
| x  Mute note
            
Hard to play? Try these video lessons and learn fast. | Correct




comments powered by Disqus
↑ Back to top | Tablatures and chords are parodies/interpretations of the original songs. You may use it for private study, scholarship, research or language learning purposes only