» » »

Green Day, Carpe Diem Bass tabs (ver.2)

Artists:  A B C D E F G H I J K L M N O P Q R S T U V W X Y Z # 

Carpe Diem Bass tabs (ver.2)

Green Day Tabs
 Rating:
4/5 (4 votes)
Carpe Diem lessons Tabs too difficult? Try these video lessons and learn fast
1
                -----------------------------------------------------------------------------
                              Carpe Diem - Green Day
-----------------------------------------------------------------------------


Track: 3 

Tuning: Standard

Intro

G|------------------------------------------|
D|------------------------------------------|
A|--4--4-4-4-4-4-----4--4--4-4-4-4-4-----4--| x2
E|---------------2-4-----------------4-2----|

Verse

G|------------------------------------------------------|
D|------------------------------------------------------|
A|----4-----4-----4---4---------4-----4------4---4------| x2
E|--4-----4-----4-------4-4---4-----4------4-------4-4--|

G|----------------------------------------|
D|----------------------------------------|
A|--4--------4--------4-------------------|
E|-----4-4------4-4------4-4-4-4-4-4-4-4--|

Chorus

G|------------------------------------------|
D|------------------------------------------|
A|--4--4-4-4-4-4-----4--4--4-4-4-4-4-----4--| x2
E|---------------2-4-----------------4-2----|

G|-----------------------------------|    |-----------------|
D|-----------------------------------|    |-----------------|
A|--4-4-4-4-4-4-4-4-4-4-4-4-4-6-5-4--| x3 |-----------------|
E|-----------------------------------|    |-4-4--4-4--4-4---|

Bridge

G|------------------------------------------|
D|------------------------------------------|
A|--4--4-4-4-4-4-----4--4--4-4-4-4-4-----4--| x2
E|---------------2-4-----------------4-2----|

G|-----------------------------------|    |-----------------|
D|-----------------------------------|    |-----------------|
A|--4-4-4-4-4-4-4-4-4-6-5-4-6-5-4-0--| x3 |-----------------|
E|-----------------------------------|    |-4-4--4-4--4-4---|

guitar plays the intro riff, then drums are added and the bass plays the final 

G|-------|
D|-------|
A|-----4-|
E|-2-4---|

Outro (Last Chorus)

G|------------------------------------------|
D|------------------------------------------|
A|--4--4-4-4-4-4-----4--4--4-4-4-4-4-----4--| x4
E|---------------2-4-----------------4-2----|


Playing Order

Intro
Verse
Chorus
Verse
Chorus
Bridge
Outro


| /  slide up
| \  slide down
| h  hammer-on
| p  pull-off
| ~  vibrato
| +  harmonic
| x  Mute note
=============================================================================
            
Submit corrections

comments powered by Disqus
↑ Back to top | Green Day Bass for Carpe Diem. Lyrics for acoustic guitar and electric guitar. 1 Tablatures and chords are parodies/interpretations of the original songs. You may use it for private study, scholarship, research or language learning purposes only