>
 >
Carpe Diem 1

Carpe Diem 1 Guitar Tabs

Green Day - Carpe Diem 1 chords, tabs, tablatures, lyrics

Guitar lessons | Add/correct | Request | Top 50 tabs Artists:  A B C D E F G H I J K L M N O P Q R S T U V W X Y Z 0-9

Carpe Diem 1 Guitar Tabs – Green Day

CD, Sheet music, Poster

Do you like Carpe Diem 1? Share with your friends now
Bass TabsBass Tabs v2ChordsChords v2Drum TabsTabsTabs v2Tabs v3Tabs v4Tabs v5Ukulele
-------------------------------------------------------------------------------
                             Carpe Diem - Green Day
-------------------------------------------------------------------------------

Tuning: Standerd
INTRO
e|--------------------------------------------------------------------------------|
B|--------------------------------------------------------------------------------|
G|-6-6-6-6-6-6------6--6-6-6-6-6-6-----6-------------------------------6----------|
D|-6-6-6-6-6-6--4-6-6--6-6-6-6-6-6-6-6-6-PLAY THIS TWICE THAN THIS-4-6-6----------|
A|-4-4-4-4-4-4--4-6-4--4-4-4-4-4-4-6-6-4---------------------------4-6-4----------|
E|--------------2-4----------------4-4-----------------------------2-4------------|
VERSE
e|--------------------------------------------------------------------------------|
B|--------------------------------------------------------------------------------|
G|---6----6----6--6------------------------4-----4--------------------------------|
D|-6-6--6-6--6-6--6-6-6~~~-----------------4-4-4-4-4-4~~~-4-4-4-4-4-4-4-4-4-------|
A|-6-4--6-4--6-4--4-6-6~~~-X4 THAN THIS----6-4-4-6-4-4~~~-4-4-4-4-4-4-4-4-4-------|
E|-4----4----4------4-4----------------------6-6---6-6~~~-6-6-6-6-6-6-6-6-6-------|
CHORUS 
e|--------------------------------------------------------------------------------|
B|--------------------------------------------------------------------------------|
G|-6-6-6-6-6-6-----6--6-6-6-6-6-6-----6-------------------------------------------|
D|-6-6-6-6-6-6-4-6-6--6-6-6-6-6-6-6-6-6-[X2}-4-4-4-4-4-4-4-4-6-6-6-6-6-6-6-6------|
A|-4-4-4-4-4-4-4-6-4--4-4-4-4-4-4-6-6-4------4-4-4-4-4-4-4-4-6-6-6-6-6-6-6-6-[X3]-|
E|-------------2-4----------------4-2--------2-2-2-2-2-2-2-2-4-4-4-4-4-4-4-4------|

e|--------------------------|
B|--------------------------|
G|--------------------------|
D|-6-6---6-6---6-6---6-6----|
A|-6-6---6-6---6-6---6-6----|
E|-4-4---4-4---4-4---4-4----|

VERSE
e|--------------------------------------------------------------------------------|
B|--------------------------------------------------------------------------------|
G|---6----6----6--6------------------------4-----4--------------------------------|
D|-6-6--6-6--6-6--6-6-6~~~-----------------4-4-4-4-4-4~~~-4-4-4-4-4-4-4-4-4-------|
A|-6-4--6-4--6-4--4-6-6~~~-X4 THAN THIS----6-4-4-6-4-4~~~-4-4-4-4-4-4-4-4-4-------|
E|-4----4----4------4-4----------------------6-6---6-6~~~-6-6-6-6-6-6-6-6-6-------|

CHORUS 
e|--------------------------------------------------------------------------------|
B|--------------------------------------------------------------------------------|
G|-6-6-6-6-6-6-----6--6-6-6-6-6-6-----6-------------------------------------------|
D|-6-6-6-6-6-6-4-6-6--6-6-6-6-6-6-6-4-6-[X2}-4-4-4-4-4-4-4-4-6-6-6-6-6-6-6-6------|
A|-4-4-4-4-4-4-4-6-4--4-4-4-4-4-4-6-4-4------4-4-4-4-4-4-4-4-6-6-6-6-6-6-6-6-[X3]-|
E|-------------2-4----------------4-2--------2-2-2-2-2-2-2-2-4-4-4-4-4-4-4-4------|

e|--------------------------|
B|--------------------------|
G|--------------------------|
D|-6-6---6-6---6-6---6-6----|
A|-6-6---6-6---6-6---6-6----|
E|-4-4---4-4---4-4---4-4----|

SOLO
e|-----------------------------------------------------------------------------------|
B|----9----9----9---9---9---9---13b--------------------------------------11b-11b-13b-|
G|-11b--11b--11b----11b-11b-11b-------11b-11b-11b-11b-10-----11b-11b-11b-------------|
D|-------------------------------------------------------11--------------------------|
A|-----------------------------------------------------------------------------------|
E|-----------------------------------------------------------------------------------|

e|-----------------------------|
B|-----------------------------|
G|-11b-11b-11b-11b-10----------|
D|--------------------11~~~----|
A------------------------------|
E|-----------------------------|

VERSE
e|----------------------------------------------------------|
B|----------------------------------------------------------|
G|----------------------------------------------------------|
D|-4-4-4-4-4-4-4-4-6-6-6-6-6-6-6-6-------6-6--6-6--6-6--6-6-|
A|-4-4-4-4-4-4-4-4-6-6-6-6-6-6-6-6-[x3]--6-6--6-6--6-6--6-6-|
E|-2-2-2-2-2-2-2-2-4-4-4-4-4-4-4-4-------4-4--4-4--4-4--4-4-|
   * * * * * * * * * * * * * * * *
e|---------------------------------------------------------------------------------------|
B|---------------------------------------------------------------------------------------|
G|-6-6-6-6-6-6------6--6-6-6-6-6-6-------6-6~~~--6-6-6-6-6-6--------6--6-6-6-6-6-6-----6-|
D|-6-6-6-6-6-6--4-6-6--6-6-6-6-6-6-6-4---6-6~~~--6-6-6-6-6-6--4--6--6--6-6-6-6-6-6-4-6-6-|
A|-4-4-4-4-4-4--4-6-4--4-4-4-4-4-4-6-4---4-4~~~--4-4-4-4-4-4--4--6--4--4-4-4-4-4-4-4-6-4-|
E|--------------2-4----------------4-2------------------------2--4-----------------2-4---|

OUTRO
e|---------------------------------------------------------------------------------|
VB|---------------------------------------------------------------------------------|
G|-6-6-6-6-6-6-----6--6-6-6-6-6-6-----4------6-6-6-6-6-6-----6---6-6-6-6-6-6-----6-|
D|-6-6-6-6-6-6-4-6-6--6-6-6-6-6-6-6-4-4-[X3}-6-6-6-6-6-6-4-6-6---6-6-6-6-6-6-6-4-6-|
A|-4-4-4-4-4-4-4-6-4--4-4-4-4-4-4-6-4-6------4-4-4-4-4-4-4-6-4---4-4-4-4-4-4-6-4-4-|
E|-------------2-4----------------4-2--------------------2-4-----------------4-2---|



************************************

| /   slide up
| \   slide down
| h   hammer-on
| p   pull-off
| ~   vibrato
| +   harmonic
| x   Mute note
| b   Bend
| pb  Pre-bend
| br  Bend release
| pbr Pre-bend release
| brb Bend release bend

************************************





Comments


Popular Green Day tabs & chords
86 Bass Tabs
Bab's Uvula Who? 2 Bass Tabs
Disappearing Boy Bass Tabs
Geek Stink Breath 3 Bass Tabs
I Was There  2 Bass Tabs
21 Guns 4 Chords
Amanda Chords
Android  Tabs
Are We The Waiting 2 Tabs
Eye Of The Tiger Intro Tabs


Song lyrics



↑ Back to top | Tablatures and chords are parodies/interpretations of the original songs. You may use it for private study, scholarship, research or language learning purposes only
© 2014 AZChords.com Contact us | Privacy policy | DMCA | Add/correct tabs | Request tabs | Top 50 tabs