» » »

Blood Sex And Booze Tabs (ver.3)

Artists:  A B C D E F G H I J K L M N O P Q R S T U V W X Y Z # 

Blood Sex And Booze Tabs (ver.3)

Green Day
Rating:
0/5 (0 votes)

Hard to play? Try these video lessons and learn fast.
                "(2)
Green Day, Blood, Sex and Booze.
  

 BaNd:Green Day
 TuNiNg:Standard


E------------|--------|
B------------|--------|   (1st chord play 36x, next 1
G------------|--------|  play 12x, then go back and 
D-----9------|--------|  then unmute)
A-----7------|--9-----|
E------------|--7-----|
     P.M.      P.M.


E--------|--7---|
B--------|--7---|
G---9----|--8---| (unmuted part)
D---9----|--9---|
A---7----|--9---|
E--------|--7---|


E-------------------------|
B-------------------------|
G-------------------------|
D---9---|--6---|----------|
A---7---|--4---|---9------|
E-------|------|---7------|
   P.M.   P.M.    P.M.


  (then go back to top)


E-------|--7---------|
B-------|--7---------|
G--9----|--8---------|                               D--9----|--9---------|
A--7----|--9---------|
E-------|--7---------|



E---------------------|
B---------------------|
G---------------------|
D--9--7--6--3--2------|
A--7--5--4--5--4------|
E---------------------|
   8x 8x 8x 4x 1x


 
 Here it is, Blood, Sex and Booze. I tabbed this song by listening to it so I hope you like it. I wonder if they'll make a video for this 1. 



 
"            
Hard to play? Try these video lessons and learn fast. | Correct




comments powered by Disqus
↑ Back to top | Tablatures and chords are parodies/interpretations of the original songs. You may use it for private study, scholarship, research or language learning purposes only