» » »

Green Day, Blood Sex And Booze Bass tabs (ver.2)

Artists:  A B C D E F G H I J K L M N O P Q R S T U V W X Y Z # 

Blood Sex And Booze Bass tabs (ver.2)

Green Day Tabs
 Rating:
4/5 (4 votes)
Blood Sex And Booze lessons Tabs too difficult? Try these video lessons and learn fast
1
                i saw mike play this on mad tv so im sure about him playing 
on 2 strings during the chorus.

Intro:
G|-----------------------------|
D|-----------------------------|
A|-7-7-7-7-7-7-7-7-7-7-7-7-7-7-|
E|-----------------------------|

Verse:
G|----------------------------------------------------------------|
D|----------------------------------------------------------------|
A|-7-7-7-7-7-7-7-7-7-7-7-7-7-7------------------------------------|
E|-----------------------------8-8-8-8-8-8-8-8-8-8-8-8-8-8-7-8-10-|

G|---------------------------------------------------------------|
D|---------------------------------------------------------------|
A|-7-7-7-7-7-7-7-7-7-7-7-7-7-7-----------------------------7-7-7-|
E|-----------------------------8-8-8-8-8-8-8-8-8-8-8-8-8-8-------|

Chorus:
G|---------------------------------------------------------|
D|---------------------------------------------------------|
A|-----------------------------7-7-7-7-7-7-7-7-7-7-7-7-7-7-|
E|-9-9-9-9-9-9-9-9-9-9-9-9-9-9-0-0-0-0-0-0-0-0-0-0-0-0-0-0-|

G|--------------------------------------------------|
D|--------------------------------------------------|
A|--------------------------------------------------|
E|-9-9-9-9-9-9-9-9-9-9-9-9-9-9-5-5-5-5-5-5-5-5--/7\-|

Post-Chorus:
G|---------------------------------------------------------------|
D|---------------------------------------------------------------|
A|-7-7-7-7-7-7-7-7-5-5-5-5-5-5-5-5-4-4-4-4-4-4-4-4---------------|
E|-------------------------------------------------5-5-5-5---/7\-|

Bridge:
G|---------|------|---------|------|--------|
D|-2-2-----|-play-|---------|-play-|-repeat-|
A|-----2-2-|--4x--|-3-3-----|--4x--|---2x---|
E|---------|------|-----3-3-|------|--------|

Outro:
G|---------------------------------------------------------|
D|---------------------------------------------------------|
A|-7-7-7-7-7-7-7-7-5-5-5-5-5-5-5-5-4-4-4-4-4-4-4-3-3-3-3-2-|
E|---------------------------------------------------------|

Song Order:
Intro
Verse
Chorus
Post-Chorus
Verse
Chorus
Post-Chorus
Intro
Bridge
Chorus
Bridge
Outro
            
Submit corrections

comments powered by Disqus
↑ Back to top | Green Day Bass for Blood Sex And Booze. Lyrics for acoustic guitar and electric guitar. 1 Tablatures and chords are parodies/interpretations of the original songs. You may use it for private study, scholarship, research or language learning purposes only