» » »

Green Day, Angel Blue Bass tabs (ver.2)

Artists:  A B C D E F G H I J K L M N O P Q R S T U V W X Y Z # 

Angel Blue Bass tabs (ver.2)

Green Day Tabs
 Rating:
4/5 (4 votes)
Angel Blue lessons Tabs too difficult? Try these video lessons and learn fast
1
                -----------------------------------------------------------------------------
                             Angel Blue - Green Day
-----------------------------------------------------------------------------


Track: 9

Tuning: Standard

Intro

G|------------------|    |-----------------------------------|
D|------------------|    |-----------------------------------|
A|------7-7-7-------| x3 |--9-9-9-9-9-9-9-9-9-9-9-9-9-9-9-9--|
E|--7---------7-7-7-|    |-----------------------------------|

G|--------------------------|    |-----------------------------------|
D|--------------------------|    |-----------------------------------|
A|--------------7-7-7-------| x3 |--9-9-9-9-9-9-9-9-9-9-9-9-9-9-9-9--|
E|--7-7-7-7-7-7-------7-7-7-|    |-----------------------------------|

Verse

G|--------------------|
D|--------------------|
A|------7-7-7---------| x4
E|--7---------7-7-7-7-|

Chorus

G|---------------------------------------------------------|
D|---------------------------------------------------------|
A|-7-7-7-9-8-6-66-6--8-7--2-2-2-2-2-2-2-2-2-2-2-2-2-2-2-2--|
E|---------------------------------------------------------|

G|-------------------------|
D|-------------------------|
A|--7-----9-9-9-9-9-9-9-9--| x4
E|-----7-------------------|

Post-Chorus

G|--------------------------|    |-----------------------------------|
D|--------------------------|    |-----------------------------------|
A|--------------7-7-7-------| x3 |--9-9-9-9-9-9-9-9-9-9-9-9-9-9-9-9--|
E|--7-7-7-7-7-7-------7-7-7-|    |-----------------------------------|

Bridge

G|---------------------------|
D|---------------------------|
A|--7-------9-9-9-9-9-9-9-9--| x4
E|------7--------------------|

G|-------------------------------------------------|
D|-------------------------------------------------|
A|---------------------------7-----7------7-----7--|
E|--5-5-5-4-4-0-0-0--0-0-7-7---7-7---7--7---7-7----|

G|------------------------------------------------------|
D|------------------------------------------------------|
A|---------------------2-2-2-2-2-2-2-2-2-2-2-2-2-2-2-2--|
E|5-5-5-4-4-0-0-0--0-0----------------------------------|


Drums and bass drop out, they come back in for the chorus

    
Outro

G|-------------------------|    |--------------------|
D|-------------------------|    |--------------------|
A|------------7-7-7--------| x3 |-----------7-7-7----|
E|--7-7-7-7-7-------7-7-7--|    |-7-7-7-7-7-------7--|


Playing Order

Intro
Verse
Chorus
Post-Chorus
Verse
Chorus
Bridge
Chorus
Outro



Have Fun



| /  slide up
| \  slide down
| h  hammer-on
| p  pull-off
| ~  vibrato
| +  harmonic
| x  Mute note
=============================================================================
            
Submit corrections

comments powered by Disqus
↑ Back to top | Green Day Bass for Angel Blue. Lyrics for acoustic guitar and electric guitar. 1 Tablatures and chords are parodies/interpretations of the original songs. You may use it for private study, scholarship, research or language learning purposes only