» » »

Green Day, Angel Blue Bass tabs (ver.1)

Artists:  A B C D E F G H I J K L M N O P Q R S T U V W X Y Z # 

Angel Blue Bass tabs (ver.1)

Green Day Tabs
 Rating:
4/5 (4 votes)
Angel Blue lessons Tabs too difficult? Try these video lessons and learn fast
1
                Green Day-Angel Blue

Intro 1                                           
G|------------------------------------------------------------|
D|------------------------------------------------------------|
A|------777----------777----------777--------9999999999999999-|
E|-777~-----777-5-7~-----777-5-7~-----777-5-------------------|

Intro 2                 Play at the end of Intro 2.
G|---------------------| |------------------|
D|---------------------| |------------------|
A|----------777--------| |-9999999999999999-|
E|-7-7-7777-----7-7775-| |------------------|
Verse
G|-----------------------------------------------------------|
D|-----------------------------------------------------------|
A|-----777-------7---999-----------777-------7---999-------7-|
E|-7-------777-5---------777-5-7-------777-5----------7-77---|

Chorus 1
G|------------------------------------------------------------------------|
D|------------------------------------------------------------------------|
A|-777777-----------------------------777777------------------------------|
E|--------5-777777-0-22222222222222-7--------5-777777-0-22222222222222-77-|

Chorus 2
G|----------------|
D|-2--------------|
A|----2-----------|
E|-------22222222-|

Solo
G|------------------------------------------------------------|
D|------------------------------------------------------------|
A|-2--------------------22222222-2-------------------22222222-|
E|----2--00000000-2--0--------------2--00000000-2--0----------|

Bridge
G|----------------------------------------------------------------------|
D|----------------------2-------2---------------------------------------|
A|------------------222---2-222---2-2-----------------------------------|
E|-5-5-5555-000-000-------------------5-5-5555-000-000-2222222222222222-|

Outro
G|---------------------|
D|---------------------|
A|----------777--------|
E|-7-7-7777-----7-7775-|



Intro 1 x1
Intro 2 x3
Verse x1
Chorus 1 x1
Chorus 2 x4
Intro 2 x3
Verse x1
Chorus 1 x1
Chorus 2 x4
Solo x1
Bridge x1
Rest until 2:13
Chorus 1 x1
Chorus 2 x4
Outro x4
            
Submit corrections

comments powered by Disqus
↑ Back to top | Green Day Bass for Angel Blue. Lyrics for acoustic guitar and electric guitar. 1 Tablatures and chords are parodies/interpretations of the original songs. You may use it for private study, scholarship, research or language learning purposes only