>
 >
Amanda

Amanda Bass Tabs

Green Day - Amanda chords, tabs, tablatures, lyrics

Guitar lessons | Add/correct | Request | Top 50 tabs Artists:  A B C D E F G H I J K L M N O P Q R S T U V W X Y Z 0-9

Amanda Bass Tabs – Green Day

CD, Sheet music, Poster

Do you like Amanda? Share with your friends now
Bass TabsBass Tabs v2ChordsChords v2Chords v3TabsTabs v2Ukulele
Tuning: Standard 
Playing Style: Pick

Intro/verse
G|-----------------------------------------------------------------------|
D|-----------------------------------------------------------------------|
A|--------------------1-1-1-1-1-1-1-1--------------------4-4-4-4-4-4-4-4-|
E|--2-2-2-2-2-2-2-2--------------------4-4-4-4-4-4-4-4-------------------|x4

Chorus
G|-------------------------------------4-4-4-4-4-4-4-4---7~--------------|
D|--4-4-4-4-4-4-4-4-4-4-4-4-4-4-4-4--------------------------------------|
A|-----------------------------------------------------------------------|
E|-----------------------------------------------------------------------|

G|-----------------------------------------------------------------------|
D|-----------------------------------------------------------------------|
A|-------------------4-4-4-4-4-4-4-4/9--9-9-9-9-9-9-9-9-4-4-4-4-4-4-4----|
E|--2-2-2-2-2-2-2-2------------------------------------------------------|


Verse 2
G|-----------------------------------------------------------------------|
D|-----------------------------------------------------------------------|
A|--------------------1-1-1-1-1-1-1-1--------------------4-4-4-4-4-4-4-4-|
E|--2-2-2-2-2-2-2-2--------------------4-4-4-4-4-4-4-4-------------------|x4

Chorus
G|-------------------------------------4-4-4-4-4-4-4-4---7~--------------|
D|--4-4-4-4-4-4-4-4-4-4-4-4-4-4-4-4--------------------------------------|
A|-----------------------------------------------------------------------|
E|-----------------------------------------------------------------------|

G|-----------------------------------------------------------------------|
D|-----------------------------------------------------------------------|
A|-------------------4-4-4-4-4-4-4/--------------------------------------|
E|--2-2-2-2-2-2-2-2------------------------------------------------------|

Interlude
G|-----------------------------------------------------------------------|
D|--4---x-4-2---x-2-----------2---2---4---x-4-2---x-2------------2---2---|
A|-------------------2---x-2---------------------------2---x-2-----------|
E|-----------------------------------------------------------------------|

G|-----------------------------------------------------------------------|
D|-----------------------------------------------------------------------|
A|-------------------2---x-2---------------------------2---x-2-----------|
E|-2---x-2-0---x-0-----------0---0---2---x-2-0---x-0-----------0---0---2-|

Bridge
G|-----------------------------------------------------------------------|
D|-----------------------------------------------------------------------|
A|--------------------------------------9--------------------------------|
E|--6--4--7--7---------7---x-9-9---x-9-----------------------------------|

G|-----------------------------------------------------------------------|
D|-----------------------------------------------------------------------|
A|-----------------------------------------------------------------------|
E|--6--4--7--7-7-7-7-7-7-7-7--9-9-9-9-9-9-9-9--9/------------------------|

Solo
G|-----------------------------------------------------------------------|
D|-----------------------------------------------------------------------|
A|--------------------1-1-1-1-1-1-1-1--------------------4-4-4-4-4-4-4-4-|
E|/-2-2-2-2-2-2-2-2--------------------4-4-4-4-4-4-4-4-------------------|x4

Chorus
G|------------------------------------4-4-4-4-4-4-4-4---7~---------------|
D|--4-4-4-4-4-4-4-4-4-4-4-4-4-4-4-4--------------------------------------|
A|-----------------------------------------------------------------------|
E|-----------------------------------------------------------------------|

G|-----------------------------------------------------------------------|
D|-----------------------------------------------------------------------|
A|-------------------4-4-4-4-4-4-4/--------------------------------------|
E|--2-2-2-2-2-2-2-2------------------------------------------------------|

Outro
G|-----------------------------------------------------------------------|
D|--4---x-4-2---x-2-----------2---2---4---x-4-2---x-2------------2---2---|
A|-------------------2---x-2---------------------------2---x-2-----------|
E|-----------------------------------------------------------------------|

G|-----------------------------------------------------------------------|
D|-------------------------------------------------------------2---2---4-|
A|-------------------2---x-2---------------------------2---x-2-----------|
E|-2---x-2-0---x-0-----------0---0---2---x-2-0---x-0---------------------|

| /  slide up
| \  slide down
| h  hammer-on
| p  pull-off
| ~  vibrato
| +  harmonic
| x  Mute note

This is my first tab, hope it's correct. Happy playing!





Comments


Popular Green Day tabs & chords
Android Bass Tabs
Church On Sunday 2 Bass Tabs
Dont Leave Me Bass Tabs
Ha Ha You're Dead Bass Tabs
Cigarettes And Valentines Live Chords
21st Century Breakdown 1 Tabs
American Idiot 6 Tabs
Ashley Tabs
East Jesus Nowhere Tabs
The One I Want Tabs


Song lyrics



↑ Back to top | Tablatures and chords are parodies/interpretations of the original songs. You may use it for private study, scholarship, research or language learning purposes only
© 2014 AZChords.com Contact us | Privacy policy | DMCA | Add/correct tabs | Request tabs | Top 50 tabs