» » »

Amanda Bass tabs (ver.2)

Artists:  A B C D E F G H I J K L M N O P Q R S T U V W X Y Z # 

Amanda Bass tabs (ver.2)

Green Day
Rating:
0/5 (0 votes)

Hard to play? Try these video lessons and learn fast.
                -----------------------------------------------------------------------------
                             Amanda - Green Day
-----------------------------------------------------------------------------


Track: 8

Playing Order at the bottom of the page


Tuning: Standard

Verse

G|------------------------------------------------------------------|
D|------------------------------------------------------------------| 
A|------------------------------------------------------------------| x4
E|-2-2-2-2-2-2-2-2-6-6-6-6-6-6-6-6-4-4-4-4-4-4-4-4-9-9-9-9-9-9-9-9--|

Chorus

G|--------------------------------------------------------|
D|--------------------------------------------------------|
A|-9-9-9-9-9-9-9-9-7-7-7-7-7-7-7-7-6-6-6-6-6-6-6-6--5~~~~-|
E|--------------------------------------------------------|

Post-Chorus

G|---------------------------------------------------------------------|
D|---------------------------------------------------------------------|
A|------------------4-4-4-4-4-4-4-4-------------------1/4-4-4-4-4-4-4--|
E|-2-2-2-2-2-2-2-2-------------------2-2-2-2-2-2-2-2-------------------|

Post-Verse 2

G|---------------------------------| |----------------------|
D|---------------------------------| |----------------------|
A|------------------4-4-4-4-4-4-4-4| |------------2--2------| x4
E|-2-2-2-2-2-2-2-2-----------------| |--2--2-0--0-------0-0-|

Bridge

G|----------------------------------------------------------------------|
D|----------------------------------------------------------------------|  
A|----------------------------------------------------------------------|
E|-2---------6-4--7-7--------7---7-9--9---------6-4--7-7--7(x8)-9(x8)-\-|

G|------------------------------------------------------------------|
D|------------------------------------------------------------------| 
A|------------------------------------------------------------------| x4
E|-2-2-2-2-2-2-2-2-6-6-6-6-6-6-6-6-4-4-4-4-4-4-4-4-9-9-9-9-9-9-9-9--|

Outro

G|---------------------------------| |----------------------|
D|---------------------------------| |----------------------|
A|------------------4-4-4-4-4-4-4-4| |------------2--2------| x3
E|-2-2-2-2-2-2-2-2-----------------| |--2--2-0--0-------0-0-|

G|------------------------|
D|------------------------|
A|------------2--2--------|
E|--2--2-0--0-------0-0-0-|

Playing Order

Verse
Chorus
Post-Chorus
Verse
Chorus
Post-Chorus 2
Bridge
Chorus 
Outro



Have Fun


| /  slide up
| \  slide down
| h  hammer-on
| p  pull-off
| ~  vibrato
| +  harmonic
| x  Mute note
=============================================================================
            
Hard to play? Try these video lessons and learn fast. | Correct




comments powered by Disqus
↑ Back to top | Tablatures and chords are parodies/interpretations of the original songs. You may use it for private study, scholarship, research or language learning purposes only