» » »

Green Day, 86 Bass tabs (ver.4)

Artists:  A B C D E F G H I J K L M N O P Q R S T U V W X Y Z # 

86 Bass tabs (ver.4)

Green Day Tabs
Rating:
0/5 (0 votes)
86 lessons Tabs too difficult? Try these video lessons and learn fast
                #------------------------------------------------------------------------------##

I've finished figureing out and typing out the lyrics and bass lines for
"86", the new GreenDay song off their album "Insomniac", coming out on
October 10th (or late night 9th). 

This is a explanation file and does not contain the lyrics or bass line,
they will follow afterwards.

Pleas set your display font to a "equal-width" font like "Courier" or the
kind so the tablature does not get mixed up and word rapped in a strange
way.

The lyrics and bass lines (and the guitar chord that I've sent before) has
been figured out off an an*log cassette recording off the radio (Z-Rock
105.9FM) that aired on October 4th, 1995.
________________
LSM a FEMC company


So here it goes; the lyrics for 86. They might be wrong, but they're damn close!

86

What brings you around
Did you lose something the last time you were here
[You'll] never find it now
It's burried deep when you walked out of here

So stand aside and let the next one pass
Don't let that door kick you in the ass

[And] there's no return from 86
So don't even try

Exit out the back
And never show your head around again
Purchase your ticket
and quickly take the last train out of town

So stand aside and let the next one pass
Don't let that door kick you in the ass

[And] there's no return from 86
So don't even try

--bridge--

[And] there's no return from 86
So don't even try
________________
LSM a FEMC company


Now here's the bass line. They might be wrong, but they're god damn close!


86

Note: tune a half step down to Eb, Ab, Db, and Gb. 
       "%" are rests.
      Try down picking all the way, and mixing the variations for Part A.


INTRO        PART A
drumbeats    E          Ab         A          1------*
G----------||----------|----------|----------|-------------|
D----------||----------|----------|----------|-------------|
A----------||----------|----------|----------|-------4x-6x-|
E----------||-0xxxxxxx-|-4xxxxxxx-|-5xxxxxxx-|-5x-7x-------|

   E           Ab         A         
G------------|----------|---------|----------||
D------------|----------|---------|----------||
A------------|----------|---------|----------||
E--0x-4-5x-7-|-4xxxxxxx-|-5xxxxxx-|-5xxxxxxx-||


PART B
    Em                    B                     A
G-||----------|----------|----------|----------|----------|----------|
D-||----------|----------|----------|----------|----------|----------|
A-||----------|----------|-2xxxxxxx-|-2xxxxxxx-|-0xxxxxxx-|-0xxxxxxx-|
E-||-0xxxxxxx-|-0xxxxxxx-|----------|----------|----------|----------|


  1----Em           Am Em   2---Am Em
G-----------|------------||-----------|----------|
D-----------|------------||-----------|----------|
A-----------|-------0x---||--------0x-|----------|
E--0xxxxxxx-|-0xxxxx--%%-||-0xxxxx----|-0xxxxxxx-|


PART C
     B                    A          1-----      2-----
G-||----------|----------|----------|----------||-----------|
D-||----------|----------|----------|----------||----2-1-2--|
A-||-2xxxxxxx-|-2xxxxxxx-|-0xxxxxxx-|-0xxxxxxx-||-0---------|
E-||----------|----------|----------|----------||-----------|



PART D
   B          A        
G-----------|----p--------|----------------|-------------|----1x-2x-|
D-----------|---1^0--2-1--|---2-1-2-1------|-------1x-2x-|-4x-------|
A--2xxxxxxx-|-0----2----2-|-2x--------2-0x-|-2x-4x-------|----------|
E-----------|-------------|----------------|-------------|----------|


PART E
   B          A
G-----------|----------||
D-----------|----------||
A--2xxxxxxx-|-0--------||
E-----------|----------||


*PART A: VARIATIONS
2A               3Ab A
|----------|     |-----------|
|----------|     |-----------|
|----------|     |-----------|
|-5xxxxxxx-|     |-4-5xxxxxx-|
________________
LSM a FEMC company



86 BASS TAB by Greenday




note this has no rests in it
This may not be 100% right but's close
                                              play twice
G-----------------------------------------------------------------------------
------
D--------------------------------------------6h8h-----------------------------
------
A-7 77 7h9------------------ 33 44 5555--7 77--------------------33 44
5555---------
E--------- 4 44 4h6 5 55 555--------------------- 4 44h6 5 55
555-------------------


when the vocals come in 

G---------------------------------------
D---------------------------------------
A--------2222222200000000---------------   
E00000000----------------0-00-000000 55- 

 around the part where he says "don't let the door kick you.." (i can't
remember 1'st line)
play

G-------------------------------------
D------------------------------ 2 210-
A2-22-22222-0-00-00000-2-22-2222-----20
E-------------------------------------- 

during the part above the second time it's played the semi-bass solo goes
like this

G--------------------------
D-----------------------220
A2-22-2222-0-00-0000-220---0
E---------------------------

WELL THAT'S IT THE NOTES ARE RIGHT BUT I'M NOT SURE ABOUT THE RYTHM HERE
BUT YOU CAN FIGURE IT OUT FROM HERE

DA'S IT BYE BYE THEN

(AND HIS FRIEND PINKY THE WONDER TURD)
            

comments powered by Disqus
↑ Back to top | Green Day Bass for 86. Lyrics for acoustic guitar and electric guitar. Tablatures and chords are parodies/interpretations of the original songs. You may use it for private study, scholarship, research or language learning purposes only