» » »

86 Bass tabs (ver.3)

Artists:  A B C D E F G H I J K L M N O P Q R S T U V W X Y Z # 

86 Bass tabs (ver.3)

Green Day
Rating:
0/5 (0 votes)

Hard to play? Try these video lessons and learn fast.
                ----------------------------------------------------------------------------
                           86 - Green Day
----------------------------------------------------------------------------



Tuning: dropped down half a note

It took me ages to tab this, and it's as close to the actual thing as i can get. I've 
to show the rhythm of the notes too, so listen and it should make sense. Mike plays loads 
little variations of the riffs and i've tried to include them all so please rate and comment.

intro:
Gb|--------------------------------|------------------------------|
Db|------------6-------------------|--6h769-----6-----------------|
Ab|7-77-777--------------------4455|77----------------------------|
Eb|--------4-44-4--5-55-55-5577----|--------4-44-4-5-55-55-5-55-57|

verse:
Gb|--------------------------------------------------------------------|
Db|--------------------------------------------------------------------|
Ab|-----------------2-222222222222222----------------------------------|
Eb|0-000000000000000-----------------5-555555555555555-0-0000-00-000555|

Gb|--------------------------------------------------------------------|
Db|--------------------------------------------------------------------|
Ab|-----------------2-222222222222222----------------------------------|
Eb|0-000000000000000-----------------5-555-55-55-5555-0-000-5-0-00-0000|

pre-chorus:
Gb|-----------------------------------------------------------------|
Db|-----------------------------------------------------------2-1h21|
Ab|2-222-22-22-2222-0-000-00-00-0000-2-222-22-22-2222-0-000-00------|
Eb|-----------------------------------------------------------------|

chorus:
Gb|----------------------------------|--------------------------------|
Db|-------------6--------------------|--6h769-----6-------------------|
Ab|7-77-777---------------------4455-|77------------------------------|
Eb|---------4-44-4--5-55-55-5577-----|-------4-444--5-55-55-4h5-55-555|

Gb|----------------------------------|--------------------------------|
Db|--------------6-------------------|--6h769-------------------------|
Ab|7-77-777---------------------4455-|77------------------------------|
Eb|---------4-444---5-55-55-5577-----|-------4-44-44--5-55-55-5-55-57-|

verse 2:
Gb|--------------------------------------------------------------------|
Db|--------------------------------------------------------------------|
Ab|-----------------2-222222222222222----------------------------------|
Eb|0-000000000000000-----------------5-555555555555555-0-0000-00-000555|

Gb|--------------------------------------------------------------------|
Db|--------------------------------------------------------------------|
Ab|-----------------2-222222222222222----------------------------------|
Eb|0-000000000000000-----------------5-555-55-55-5555-0-000-5-0-00-0000|

pre-chorus 2:
Gb|-----------------------------------------------------------------|
Db|-----------------------------------------------------------2-1h21|
Ab|2-222-22-22-2222-0-000-00-00-0000-2-222-22-22-2222-0-000-00------|
Eb|-----------------------------------------------------------------|

chorus 2:
Gb|----------------------------------|---------------------------------|
Db|-------------6--------------------|--6h769--------------------------|
Ab|7-77-777---------------------4455-|77------------------------------4|
Eb|---------4-44-4--5-55-55-5577-----|-------4-44-44--5-55-55-4h5-5577-|

Gb|--------------------------------|-------------------------------|
Db|--6h769----6--------------------|--6h769------------------------|
Ab|77-------------------------4455-|77-----------------------------|
Eb|-------4-44-4--5-55-55-5577-----|-------4-44-44--5-55-55-5-55-57|

bridge:
Gb|----------------------------------|---------------------------------|
Db|-------------6--------------------|--6h769-----6--------------------|
Ab|7-77-777---------------------4455-|77------------------------------4|
Eb|---------4-44-4--5-55-55-5577-----|-------4-444---5-55-55-4h5-5577--|

Gb|-------------------------------|------------------------------------|
Db|--6h769------------------------|--------------6---------------------|
Ab|77-----------------------------|7-77-777----------------------------|
Eb|--------4-44-44-5-55-55-5-55-57|---------4-444--4h555555554h55555555|

(that bit with the solo in):
Gb|------------------------------------------|
Db|------------------------------------446677|
Ab|-----------76776--------------445577------|
Eb|777777-7-5------76-777777-5577------------|

chorus3:
Gb|----------------------------------|---------------------------------|
Db|--6h769------6--------------------|--6h769--------------------------|
Ab|77---------------------------4455-|77------------------------------4|
Eb|---------4-44-4--5-55-55-5577-----|-------4-44-44--5-55-55-4h5-5577-|

Gb|--------------------------------|-------------------------------|
Db|--6h769-----6-------------------|--6h769-----6------------------|
Ab|77-------------------------4455-|77-----------------------------|
Eb|-------4-444---5-55-55-5577-----|-------4-444---5555555555555555|

end:
Gb|----------|
Db|----------|
Ab|----------|
Eb|777777-75~|
            
Hard to play? Try these video lessons and learn fast. | Correct




comments powered by Disqus
↑ Back to top | Tablatures and chords are parodies/interpretations of the original songs. You may use it for private study, scholarship, research or language learning purposes only