» » »

Green Day, 86 Bass tabs (ver.1)

Artists:  A B C D E F G H I J K L M N O P Q R S T U V W X Y Z # 

86 Bass tabs (ver.1)

Green Day Tabs
 Rating:
4/5 (4 votes)
86 lessons Tabs too difficult? Try these video lessons and learn fast
1
                remember the verse, chorus, and bridge all being correct except for a minor 
fill errors. Eric's version basically made them all incorrect so I decided 
to fix this tab. Nice try, though.

Intro
Gb--------------------------------------------------------------------------
Db------------------------------------------6-7-----------------------------
Ab----------------------------------------7---------------------------------
Eb--0-0-0-0-0-4-4-4-4-4-5-5-5-5-5-0-4-5-7--------4-4-4-4-4-5-5-5-5-5-5-5-5--

Verse
Gb-----------------------------------------------------------------------------------
Db-----------------------------------------------------------------------------------
Ab----------------------2-2-2-2-2-2-2-2-2-2-0-0-0-0-0-0-0-0-0-0----------------------
Eb--0-0-0-0-0-0-0-0-0-0-----------------------------------------0-0-0-0-0-0-0-5-5-0--

Gb-----------------------------------------------------------------------------------
Db-----------------------------------------------------------------------------------
Ab----------------------2-2-2-2-2-2-2-2-2-2-0-0-0-0-0-0-0-0-0-0----------------------
Eb--0-0-0-0-0-0-0-0-0-0-----------------------------------------0-0-0-0-0-0-0-0-0-0--

Pre-Chorus		   X2
Gb---------------------------|-----------
Db---------------------------|--7p6h7----
Ab--2-2-2-2-2-2-0-0-0-0-0-0--|--------7--
Eb---------------------------|-----------

Chorus
Gb--------------------------------------------------------------------------
Db------------------------------------------6-7-----------------------------
Ab----------------------------------------7---------------------------------
Eb--0-0-0-0-0-4-4-4-4-4-5-5-5-5-5-0-4-5-7--------4-4-4-4-4-5-5-5-5-5-5-5-5--

2nd Chorus									     X2
Gb-----------------------------------------------|-------------------------------------|
Db------------------------------------------6-7--|--------------------------------6-7--|
Ab----------------------------------------7------|------------------------------7------|
Eb--0-0-0-0-0-4-4-4-4-4-5-5-5-5-5-0-4-5-7--------|--4-4-4-4-4-5-5-5-5-5-0-4-5-7--------|

Gb-----------------------------
Db-----------------------------
Ab-----------------------------
Eb--4-4-4-4-4-5-5-5-5-5-5-5-5--

Bridge 										     X2
Gb-----------------------------------------------|-------------------------------------|
Db------------------------------------------6-7--|--------------------------------6-7--|
Ab----------------------------------------7------|------------------------------7------|
Eb--0-0-0-0-0-4-4-4-4-4-5-5-5-5-5-0-4-5-7--------|--4-4-4-4-4-5-5-5-5-5-0-4-5-7--------|

Gb--------------------------------------------------------------------------------------
Db--------------------------------------------------7p6h7-------------------------------
Ab---------------------------------------2-2-2-2-0--------7--2-2-2-2-0-4-5-7-8-9-10-11--
Eb--0-0-0-0-0-4-4-4-4-4-5-5-5-5-5-5-5-5-------------------------------------------------

Outro Chorus									     X2
Gb-----------------------------------------------|-------------------------------------|
Db------------------------------------------6-7--|--------------------------------6-7--|
Ab----------------------------------------7------|------------------------------7------|
Eb--0-0-0-0-0-4-4-4-4-4-5-5-5-5-5-0-4-5-7--------|--4-4-4-4-4-5-5-5-5-5-0-4-5-7--------|

Gb----------------------------------------
Db----------------------------------------
Ab-----------------------------2-2-2-2-0--
Eb--4-4-4-4-4-5-5-5-5-5-5-5-5-------------


Intro X1
Verse X1
Pre-Chorus X1
Chorus X2
Verse X1
Pre-Chorus X1
2nd Chorus X1
Bridge X1
Outro Chorus X1

This tab was created by Christian Mangs. Email me at:
XXXXXXXXXXXXXXXXXX
            
Submit corrections

comments powered by Disqus
↑ Back to top | Green Day Bass for 86. Lyrics for acoustic guitar and electric guitar. 1 Tablatures and chords are parodies/interpretations of the original songs. You may use it for private study, scholarship, research or language learning purposes only