>
 >
21 Guns Broadway

21 Guns Broadway Guitar Tabs

Green Day - 21 Guns Broadway chords, tabs, tablatures, lyrics

Guitar lessons | Add/correct | Request | Top 50 tabs Artists:  A B C D E F G H I J K L M N O P Q R S T U V W X Y Z 0-9

21 Guns Broadway Guitar Tabs – Green Day

CD, Sheet music, Poster

Do you like 21 Guns Broadway? Share with your friends now
Tabs
21 Guns(Broadway)
Greenday

Guitar Tab

INTRO:

e-----6-----------10---------|
B----------8------------10---|
G----------------------------|
D----------------------------|
A----------------------------|
E----------------------------|


VERSE:

Play it with Chords

Guitar 3 (acoustic)
G       D#                A#        F
  Do you know what's worth fighting for,
G          D#        A#     F
  When it's not worth dying for?
G        D#        A#      F
  Does it take your breath away
         D#                F
And you feel yourself suffocating?

G         D#         A#        F
  Does the pain weigh out the pride?
G        D#          A#        F
  And you look for a place to hide?
G        D#             A#      F
  Did someone break your heart inside?
 D#
You're in ruins

CHORUS:

One, 21 guns
Lay down your arms
Give up the fight
One, 21 guns
Throw up your arms into the sky,
You and I

*Violin
e-----|-------------------------------------------------    |       --------------|
B-----|-------------------------------------------------    |       --------------|
G--7--|--33-----------------8888------1010101010101010--    |       8888------10--|
D--7--|--33---77--55--3333--8888-8888-1010101010101010-- x2 | then  8888-8888-10--|
A--5--|--11---77--55--3333--6666-8888--8-8-8-8-8-8-8-8--    |       6666-8888--8--|
E-----|-------55--33--1111-------6666-------------------    |       -----6666-----|

                                                            (You and I)


VERSE:

Guitar 3 (acoustic)
Dm          A#     F          C
  When you're at the end of the road
Dm        A#       F             C
  And you lost all sense of control
Dm        A#            F            C
 And your thoughts have taken their toll
         A#                              C
When your mind breaks the spirit of your soul
Dm     A#             F        C
  Your faith walks on broken glass
Dm         A#      F        C
  And the hangover doesn't pass
Dm          A#   F         C
  Nothing's ever built to last
 A#
You're in ruins.


CHORUS:


One, 21 guns
Lay down your arms
Give up the fight
One, 21 guns
Throw up your arms into the sky,
You and I

Guitar 2 (rhythm electric)
e-----|----------------------------------------    |       --------------------|
B-----|----------------------------------------    |       --------------------|
G--5--|----------77--5555--3333------55555555--    |       3333------55555555--|
D--5--|--33--22--77--5555--3333-3333-55555555-- x2 | then  3333-3333-55555555--|
A--3--|--33--33--55--3333--1111-3333-33333333--    |       1111-3333-33333333--|
E-----|--11--00-----------------1111-----------    |       -----1111-----------|

BRIDGE:


Did you try to live on your own
When you burned down the house and home?
Did you stand too close to the fire?
Like a liar looking for forgiveness from a stone

Guitar 2 (rhythm electric)
e------------------------|----------------------   |----------------------------------|
B------------------------|----------------------   |----------------------------------|
G------88------10101010--|------88--------7777--   |--88888888-101010101010101010-----|
D--55--88--88--10101010--|--55--88--8888--7777-- x2|--88888888-101010101010101010-----|
A--55--66--88---8-8-8-8--|--55--66--8866--5555--   |--66666666--8-8-8-8-8-8-8-8-8-----|
E--33------66------------|--33------6666--------   |----------------------------------|

Guitar 1 (lead electric)
e---------------------------------------------------|
B--11----11----11----11-11-11----11----10----10-----|
G-----12----12----12----------10----10----10----10--|
D---------------------------------------------------| 2X
A---------------------------------------------------|
E---------------------------------------------------|

e---------------------------------------------------------------------|
B--11----11----11----11-11-11----11----10----10----11x8-11\10-10x6----|
G-----12----12----12----------10----10----10----10--------------------|
D---------------------------------------------------------------------|
A---------------------------------------------------------------------|
E---------------------------------------------------------------------|



VERSE:
(Piano)
G          D#       A#           F
  When it's time to live and let die
G        D#         A#       F
  And you can't get another try
G           D#          A#        F
  Something inside this heart has died
D#
You're in ruins.

END CHORUS:

One, 21 guns
Lay down your arms
Give up the fight
One, 21 guns
Throw up your arms into the sky,
You and I

Guitar 2 (rhythm electric)
e------|----------------------------------------|    
B------|----------------------------------------|   
G--10--|--55--44-----------------5555-----------|
D--10--|--55--55--77--5555--3333-5555-55555555--|x3
A---8--|--33--22--77--5555--3333-3333-55555555--|   
E------|----------55--3333--1111------33333333--|    

e-------------------------------------------------|    
B-------------------------------------------------|  
G--55---44-----------------5555-1212121212121212--|   
D--55---55--77--5555--3333-5555-1212121212121212--|    
A--33---22--77--5555--3333-3333-1010101010101010--|   
E-----------55--3333--1111------------------------|    

e----------------|
B----------------|
G------5555------|
D-3333-5555-5~---|
A-3333-3333-5~---|
E-1111------3~---|

Guitar 1 (lead electric) 
e-----------------------------------------------------------------------------------|
B-----------------------------------------------------------------/12-12--12-13-15--|
G-----------------------------------------------------------------------------------| x2
D-----------------------------------------------------------------------------------|
A-----------------------------------------------------------------------------------|
E-----------------------------------------------------------------------------------|

e-----------------------------------------------------------------------------------|
B--13----13----15----15----13----13----12----12----10------8------/12-12--12-13-15--|
G-----12----12----12----12----14----14----12----12----10-----9----------------------| x2
D--------------------------------------------------------10----10-------------------|
A-----------------------------------------------------------------------------------|
E-----------------------------------------------------------------------------------|

e------------------------------|
B--13----13----15----15----12~-|
G-----12----12----12----12-----|
D------------------------------|
A------------------------------|
E------------------------------|





Comments


Popular Green Day tabs & chords
21st Century Breakdown 2 Bass Tabs
Carpe Diem 2 Bass Tabs
Eye Of The Tiger Bass Tabs
Android  Chords
Before The Lobotomy Chords
Desensitized 1 Chords
Boulevard Of Broken Dreams 1 Drum Tabs
Geek Stink Breath 3 Tabs
Geek Stink Breath 5 Tabs
Good Riddance 1 Tabs


Song lyrics



↑ Back to top | Tablatures and chords are parodies/interpretations of the original songs. You may use it for private study, scholarship, research or language learning purposes only
© 2014 AZChords.com Contact us | Privacy policy | DMCA | Add/correct tabs | Request tabs | Top 50 tabs