» » »

Green Day, 21 Guns Chords (ver.1)

Artists:  A B C D E F G H I J K L M N O P Q R S T U V W X Y Z # 

21 Guns Chords (ver.1)

Green Day Tabs
Rating:
0/5 (0 votes)
21 Guns lessons Tabs too difficult? Try these video lessons and learn fast
                -------------------------------------------------------------------------------
-------------------------------------------------------------------------------


I can't guarantee that this is perfect, but I can guarantee that this is my first tab ever!

Great song; sorry I didn't post the lead, I'm not very good at hearing lead.


Rise Against is the best band ever!
(Except for that cr*ppy last album, "Appeal to Reason", RPM is where it's at!!!!)

PS. I revised the tab. I re-listened to it and figured out the right chords. 
Sorry about the confusion!

Chords used:
           (Fmaj)   (A#m/A5) (Cmaj)  (Dm)
e|-----------1-------1------- 0--------1---------------------------------------|
B|-----------1-------3------- 1--------3---------------------------------------|
G|-----------2-------3---3--- 0--------2---------------------------------------|
D|-----------3-------3---3--- 2--------0 --------------------------------------|
A|-----------3-------1---1--- 3--------- --------------------------------------|
E|-----------1-------1------- X--------- --------------------------------------|


Tuning: Standard (Low to High) EADGBe


VERSE:

(Just in case it's hard to read, it's all Fmaj, A#, C in the verse

Listen to the song for the rhythm. [Stay on Fmaj and A# for 1 measure, 2 measures for C]

End on Fmaj on "You're in ruins...")


Dm   A#                 Fmaj      C   Dm      A#        Fmaj      C

Do you know what's worth fighting for? When it's not worth dying for


Dm    A#        Fmaj    C     Dm      A#          F            C

Does it take your breath away? And you feel yourself suffocating


Dm      A#          Fmaj    C     Dm      A#         Fmaj        C

Does the pain weigh out the pride? And you look for a place to hide?


Dm     A#              C     Fmaj            Dm

Did someone break your heart inside? You're in ruins...


      C5
e|------------|
B|------------|
G|-----5------|
D|-----5------|
A|-----3------|
E|------------|


CHORUS:


e|------------------------------------------------------------------------------|
B|------------------------------------------------------------------------------|
G|--------- 55 ----77----555\-----33333333 55555555------------------ - --------|
D|--- 33----55-----77----555\-----33333333 55555555-----------------------------|
A|--- 33----33-----55----333\-----11111111 33333333-----------------------------|
E|--- 11------------------------------------------------------------------------|


e|------------------------------------------------------------------------------|
B|------------------------------------------------------------------------------|
G|--------- 55 ----77----555\-----33333333 55555555 33333333 5----- - ----------|
D|--- 33----55-----77----555\-----33333333 55555555 33333333 5------------------|
A|--- 33----33-----55----333\-----11111111 33333333 11111111 3------------------|
E|--- 11------------------------------------------------------------------------|

One, 21 guns
Lay down your arms
Give up the fight
One, 21 guns
Throw up your arms into the sky
You and I

VERSE:


Dm        A#         Fmaj     C   Dm       A#     Fmaj       C

When you're at the end of the road, and you lost all sense of control...


Dm      A#           Fmaj        C     Dm         A#               Fmaj         C

And your thoughts have taken their toll, when your mind breaks the spirit of your soul...


Dm  A#           Fmaj      C   Dm        A#      Fmaj       C

Your faith walks on broken glass, and the hangover doesn't pass...


Dm      A#        Fmaj    C            Dm

Nothing's ever built to last, you're in ruins...

      C5
e|------------|
B|------------|
G|-----5------|
D|-----5------|
A|-----3------|
E|------------|


CHORUS:


e|------------------------------------------------------------------------------|
B|------------------------------------------------------------------------------|
G|--------- 55 ----77----555\-----33333333 55555555------------------ - --------|
D|--- 33----55-----77----555\-----33333333 55555555-----------------------------|
A|--- 33----33-----55----333\-----11111111 33333333-----------------------------|
E|--- 11------------------------------------------------------------------------|


e|-----------------------------------------------------------------------------------|
B|-----------------------------------------------------------------------------------|
G|--------- 55 ----77----555\-----33333333 55555555 33333333 55555555----- - --------|
D|--- 33----55-----77----555\-----33333333 55555555 33333333 55555555----------------|
A|--- 33----33-----55----333\-----11111111 33333333 11111111 33333333----------------|
E|--- 11-----------------------------------------------------------------------------|

One, 21 guns
Lay down your arms
Give up the fight
One, 21 guns
Throw up your arms into the sky
You and I

BRIDGE:

e|-----------------------------------------------------------------------------|
B|-----------------------------------------------------------------------------|
G|----77---33---55---3355----77---33----5555---3322----------------------------|
D|----77---33---55---3355----77---33----5555---3322----------------------------|
A|----55---11---33---1133----55---11----3333---1100----------------------------|
E|-----------------------------------------------------------------------------|


e|-----------------------------------------------------------------------------|
B|-----------------------------------------------------------------------------|
G|----77---33---5555---3333----77777777---55555555-----------------------------|
D|----77---33---5555---3333----77777777---55555555-----------------------------|
A|----55---11---3333---1111----55555555---33333333-----------------------------|
E|-----------------------------------------------------------------------------|


Did you try to live on your own, when you burned down the house and home?
Did you stand too close to the fire? Like a liar looking for forgiveness from a stone

e|-------------------------------------------------------------------------------|
B|-------------------------------------------------------------------------------|
G|--------- --5555 --7777----5555-----33333333 55555555------------------ - -----|
D|--- 3333----5555---7777----5555-----33333333 55555555--------------------------|
A|--- 3333----3333---5555----3333-----11111111 33333333--------------------------|
E|--- 1111-----------------------------------------------------------------------|


e|--------------------------------------------------------------------------|
B|--------------------------------------------------------------------------|
G|--------- --5555 --7777----5555-----33333333 55555555---3333333322222222--|
D|--- 3333----5555---7777----5555-----33333333 55555555---3333333322222222--|
A|--- 3333----3333---5555----3333-----11111111 33333333---1111111100000000--|
E|--- 1111------------------------------------------------------------------|

Dm      A#        Fmaj        C     Dm  A#          Fmaj      C

When it's time to live and let die, and you can't get another try


Dm      A#          Fmaj         C                Dm

Something inside this heart has died, you're in ruins...

CHORUS:


e|------------------------------------------------------------------------------|
B|------------------------------------------------------------------------------|
G|--------- 55 ----77----555\-----33333333 55555555------------------ - --------|
D|--- 33----55-----77----555\-----33333333 55555555-----------------------------|
A|--- 33----33-----55----333\-----11111111 33333333-----------------------------|
E|--- 11------------------------------------------------------------------------|


e|------------------------------------------------------------------------------|
B|------------------------------------------------------------------------------|
G|--------- 55 ----77----555\-----33333333 55555555------------------ - --------|
D|--- 33----55-----77----555\-----33333333 55555555-----------------------------|
A|--- 33----33-----55----333\-----11111111 33333333-----------------------------|
E|--- 11------------------------------------------------------------------------|

e|------------------------------------------------------------------------------|
B|------------------------------------------------------------------------------|
G|--------- 55 ----77----555\-----33333333 55555555------------------ - --------|
D|--- 33----55-----77----555\-----33333333 55555555-----------------------------|
A|--- 33----33-----55----333\-----11111111 33333333-----------------------------|
E|--- 11------------------------------------------------------------------------|


e|------------------------------------------------------------------------------|
B|------------------------------------------------------------------------------|
G|--------- 55 ----77----555\-----33333333 55555555 33333333 5----- - ----------|
D|--- 33----55-----77----555\-----33333333 55555555 33333333 5------------------|
A|--- 33----33-----55----333\-----11111111 33333333 11111111 3------------------|
E|--- 11------------------------------------------------------------------------|

One, 21 guns
Lay down your arms
Give up the fight
One, 21 guns
Throw up your arms into the sky
You and I


| /  slide up
| \  slide down
| h  hammer-on
| p  pull-off
| ~  vibrato
| +  harmonic
| x  Mute note
===============================================================================
            
Submit corrections

comments powered by Disqus
↑ Back to top | Green Day Chords for 21 Guns. Lyrics for acoustic guitar and electric guitar. Tablatures and chords are parodies/interpretations of the original songs. You may use it for private study, scholarship, research or language learning purposes only