» » »

Green Day, 21 Guns Bass tabs (ver.2)

Artists:  A B C D E F G H I J K L M N O P Q R S T U V W X Y Z # 

21 Guns Bass tabs (ver.2)

Green Day Tabs
Rating:
0/5 (0 votes)
21 Guns lessons Tabs too difficult? Try these video lessons and learn fast
                please rate this tab it's my first aswell i would prefer you to coment if you rate nagativly
thanks

Band: Green Day


Opens on guitar
e|---------------------------|
B|--------------10~~---------|
G|--10~~--7~~---------9~~----| x2
D|---------------------------|
A|---------------------------|
E|---------------------------|

Verse:
G|------------------|
D|----0------3------|x3
A|-------00-----33--|
E|------------------|

G|--------------------|
D|--------------------|
A|--0------------3----|
E|--------------------|

G|------------------|
D|----0------3------|x3
A|-------00-----33--|
E|------------------|

G|--------------------|
D|--------------------|
A|--0------------3----|
E|--------------------|

Chorus:
G|----------------------------------------------|
D|-33--22--00-----------------------------------|
A|-------------3333--1111-------333333333--(x2)-|
E|--------------------------1111----------------|

G|--------------------------|
D|--------------------------|
A|--1111-------3------------|
E|-------1111---------------|

Verse:
G|------------------|
D|----0------3------|x3
A|-------00-----33--|
E|------------------|

G|--------------------|
D|--------------------|
A|--0------------3----|
E|--------------------|

Verse:
G|------------------|
D|----0------3------|x3
A|-------00-----33--|
E|------------------|

G|--------------------|
D|--------------------|
A|--0------------3----|
E|--------------------|

Chorus:
G|----------------------------------------------|
D|-33--22--00-----------------------------------|
A|-------------3333--1111-------333333333--(x2)-|
E|--------------------------1111----------------|

G|--------------------------|
D|--------------------------|
A|--1111-------3------------|
E|-------1111---------------|

Verse:
G|------------------|
D|----0------3------|x3
A|-------00-----33--|
E|------------------|

G|--------------------|
D|--------------------|
A|--0------------3----|
E|--------------------|

Guitar solo
G|----------------------------------------------|----------------------------|
D|-3333-2222-0000-------------------------------|----------------------------|
A|----------------3333-1111------33333333--(x2)-|-1111-----------------------|
E|--------------------------1111----------------|------1111-55555555---------|

guitar plays 2 times before bass commes in

Verse:
G|------------------|
D|----0------3------|x3
A|-------00-----33--|
E|------------------|

G|--------------------|
D|--------------------|
A|--0------------3----|
E|--------------------|

Chorus
G|----------------------------------------------|
D|-33--22--00-----------------------------------|
A|-------------3333--1111-------333333333--(x4)-|
E|--------------------------1111----------------|

G|--------------------------|
D|--------------------------|
A|--1111-------3------------|
E|-------1111---------------|


hold that last 3 for a few seconds longer then the others

hope i did a good job and could you please rate or coment
            

comments powered by Disqus
↑ Back to top | Green Day Bass for 21 Guns. Lyrics for acoustic guitar and electric guitar. Tablatures and chords are parodies/interpretations of the original songs. You may use it for private study, scholarship, research or language learning purposes only