» » »

16 Bass tabs (ver.1)

Artists:  A B C D E F G H I J K L M N O P Q R S T U V W X Y Z # 

16 Bass tabs (ver.1)

Green Day
Rating:
3/5 (4 votes)

Hard to play? Try these video lessons and learn fast.
                ----------------------------------------------------------------------------
                               16-Green Day
----------------------------------------------------------------------------
Album:1,039/Smoothed Out Slappy Hours
Tuning:Standard




  INTRO x2

   G|--------------------------------------|
   D|--------------------------------------|
   A|--------------------------------------|
   E|---7p5h7p5h7-7--7-7-5-5-5-5-0-0-0-7---|


  VERSE 


   G|-------------------------------------------------------------------|
   D|-------------------------------------------------------------------|
   A|-------------------------------------------------------------------| x4
   E|---7-7-7-7-5-5-5-5-0-0-0-7--7p5h7p5h7-7-7-7-7-5-5-5-5-0-0-0-7--7-7-|


  CHORUS x4
  
   G|-------5-----------------------------|
   D|-------------------------------------|
   A|---3-3---3-5-5-5-5-2-2-2-2-2-2-2-2---|
   E|-------------------------------------|


  VERSE 2 x5

  CHORUS 2

   G|-------5-----------------------------|
   D|-------------------------------------|
   A|---3-3---3-5-5-5-5-2-2-2-2-2-2-2-2---| x2
   E|-------------------------------------|

   G|-------5-------------------------------5-----------------------------|
   D|---------------------------------------------------------------------|
   A|---3-3---3-5-5-5-5-2-2-2-2-3-2-0-2-3-3---3-5-5-5-5-2-2-2-2-2-2-2-2---|
   E|---------------------------------------------------------------------|


  SOLO/BRIDGE

   G|-----------------------------------------------|
   D|-----------------------------------------------|
   A|-----------------------------------------------| x3
   E|---7-7-7--5h7-7-5h7p5h7--7-7-7--5-2--0h2p0h2---|


   G|------------------------------------------|
   D|------------------------------------------|
   A|------------------------------------------|
   E|---7-7-7--5h7-7-5h7p5h7-7-7-7-7-7-7-7-7---|


  CHORUS 3 (same as chorus 2, not chorus 1)

  VERSE 3 x4

  CHORUS 4 (also like chorus 2)

  OUTRO

   G|---------------------------------------------------------------------|
   D|---------------------------------------------------------------------|
   A|---3-3-3-3-5-5-5-5-2-2-2-2-3-2-0-2-3-3-3-3-5-5-5-5-2-2-2-2-2-2-2-2---|
   E|---------------------------------------------------------------------|

   
   G|-------5-------------------------------5-----------------------------|
   D|---------------------------------------------------------------------|
   A|---3-3---3-5-5-5-5-2-2-2-2-3-2-0-2-3-3---3-5-5-5-5-2-2-2-2-2-2-2-2---|
   E|---------------------------------------------------------------------|


   G|-------------------------------------|
   D|-------------------------------------|
   A|---2-2-2-2---------------------------|
   E|-----------5-5-5-5-0-0-0-7~----------|



   ORDER:
  
   INTRO x2
   VERSE
   CHORUS x4
   VERSE 2 x5
   CHORUS 2
   SOLO/BRIDGE
   CHORUS 3
   VERSE 3 x4
   CHORUS 4
   OUTRO
            
Hard to play? Try these video lessons and learn fast. | Correct




comments powered by Disqus
↑ Back to top | Tablatures and chords are parodies/interpretations of the original songs. You may use it for private study, scholarship, research or language learning purposes only