» » »

16 Bass tabs (ver.2)

Artists:  A B C D E F G H I J K L M N O P Q R S T U V W X Y Z # 

16 Bass tabs (ver.2)

Green Day
Rating:
3/5 (2 votes)

Hard to play? Try these video lessons and learn fast.
                Band: Green Day
Bassist: Mike Dirnt
Transcripted by Angelus Rho Needreary III (Eric Needreary)

   P
G|-4 --> Pluck on note below
3h4  --> Hammer-on
3p2  --> Pull-of
14\  --> Slide down
2=== --> Let Ring

Intro

  \Guitar only_| 
G||------------||
D||------------||
A||-REST-------||
E||------------||

1st Verse

                           P P
G||----||------------------4-4-|------------------||
D||----||--------------2-------|------------------||
A||-14\||-0-22-000---0---2-----|-22-000-----2-22--||
E||----||----------------------|--------000-------||

  \"Every night"................"I were dead"|
                     P P
G||------------------4-4-|------------------||
D||º-------------2-------|-----------------º||
A||º0-22-000---0---2-----|-22-000-----2-22-º||
E||----------------------|--------000-------||

1st Chorus

G||---5---7---4---4-|---5---7---4---4-|---5---7---4---4-|
D||-----------------|-----------------|-----------------|
A||-33--55--22--22--|-33--55--22--22--|-33--55--22--22--|
E||-----------------|-----------------|-----------------|

G|---5---7---4---4-|
D|-----------------|
A|-33--55--22--22--|
E|-----------------|

2nd Verse

                     P P
G||------------------4-4-|------------------||
D||--------------2-------|------------------||
A||-0-22-000---0---2-----|-22-000-----2-22--||
E||----------------------|--------000-------||

  \"Look at my friends"......"comes the rain"|
                     P P
G||------------------4-4-|------------------||
D||º-------------2-------|-----------------º||
A||º0-22-000---0---2-----|-22-000-----2-22-º||
E||----------------------|--------000-------||

2nd Chorus

G||---5---7---4---4-|---5---7---4---4-|------------5-3-2-3-|
D||-----------------|-----------------|--------------------|
A||-33--55--22--22--|-33--55--22--22--|-33--55--00=========|
E||-----------------|-----------------|--------------------|

G|---5---7---4---4-|
D|-----------------|
A|-33--55--22--22--|
E|-----------------|

Bridge

        P P P
G||-----4-4-4------1-0----------||x2
D||º-------------------3-2p1p0-º||
A||º-22-------0h22-------------º||
E||-----------------------------||

       P P P
G||----4-4-4-------------||
D||----------------------||
A||-22-------0h222-22222-||
E||----------------------||

3rd Chorus

G||---5---7---4---4-|---5---7---4---4-|---5---7---------------|
D||-----------------|-----------------|-----------------------|
A||-33--55--22--22--|-33--55--22--22--|-33--55--222-0-3p2-0h2-|
E||-----------------|-----------------|-----------------------|

G|---5---7---4---4-|
D|-----------------|
A|-33--55--22--22--|
E|-----------------|

3rd Verse

                     P P
G||------------------4-4-|------------------||
D||--------------2-------|------------------||
A||-0-22-000---0---2-----|-22-000-----2-22--||
E||----------------------|--------000-------||

  \"Every night"................"I were dead"|
                     P P
G||------------------4-4-|------------------||
D||º-------------2-------|-----------------º||
A||º0-22-000---0---2-----|-22-000-----2-22-º||
E||----------------------|--------000-------||

4th Chorus

G||---5---7---4---4-|---5---7---4---4-|------------5-3-2-3-|
D||-----------------|-----------------|--------------------|
A||-33--55--22--22--|-33--55--22--22--|-33--55--00=========|
E||-----------------|-----------------|--------------------|

G|---5---7---4---4-||
D|-----------------||
A|-33--55--22--22--||
E|-----------------||

Outro

G||----5---7---4---4-|---5---7---4---4-|---5---7---------------|
D||º-----------------|-----------------|-----------------------|
A||º-33--55--22--22--|-33--55--22--22--|-33--55--222-0-3p2-0h2-|
E||------------------|-----------------|-----------------------|

G|---5---7---4---4--|||------------------------------||
D|-----------------º|||--------------2---------------||
A|-33--55--22--22--º|||-0-22-000---0---2=============||
E|------------------|||------------------------------||
            
Hard to play? Try these video lessons and learn fast. | Correct




comments powered by Disqus
↑ Back to top | Tablatures and chords are parodies/interpretations of the original songs. You may use it for private study, scholarship, research or language learning purposes only