» » »

God Is An Astronaut, Coda Tabs (ver.1)

Artists:  A B C D E F G H I J K L M N O P Q R S T U V W X Y Z # 

Coda Tabs (ver.1)

God Is An Astronaut Tabs
 Rating:
4.3/5 (6 votes)
Coda lessons Tabs too difficult? Try these video lessons and learn fast
                

-----------------------------------------------------------------
-----------------------------------------------------------------


Open to suggestions and Please Rate!!



intro 00:08 with echo, allowing each to ring 

e--------------------------------|
b--------------------------------|
g--11---11---11---11---11---11---|
d--11---11---11---11---11---11---|
a---9----9----9----9----9----9---|
e--------------------------------|


00:32

e--------------------------------------------|
b-----9-------9-------9-------9-------10/----|
g-------11------11------11------11-----------|
d--11------11------11------11------11--------|
a--------------------------------------------|
e--------------------------------------------|

e--------------------------------------------|
b----7------7------7-----7------7------7-----|
g------9------9------------9------9----------|
d--9-----9------9-----7------7------7--------|
a--------------------------------------------|
e--------------------------------------------|


e--------------------------------------------|
b-----9-------9-------9-------9-------10/----|
g-------11------11------11------11-----------|
d--11------11------11------11------11--------|
a--------------------------------------------|
e--------------------------------------------|

e--------------------------------------------|
b----7------7------7-----7------7------7-----|
g------9------9------------9------9----------|
d--9-----9------9-----7------7------7--------|
a--------------------------------------------|
e--------------------------------------------|

e--------------------------------------------|
b-----9-------9-------9-------9-------10/----|
g-------11------11------11------11-----------|
d--11------11------11------11------11--------|
a--------------------------------------------|
e--------------------------------------------|

e--------------------------------------------|
b----7------7------7-----7------7------7-----|
g------9------9------------9------9----------|
d--9-----9------9-----7------7------7--------|
a--------------------------------------------|
e--------------------------------------------|

e--------------------------------------------|
b-----9-------9-------9-------9-------10/----|
g-------11------11------11------11-----------|
d--11------11------11------11------11--------|
a--------------------------------------------|
e--------------------------------------------|

e--------------------------------------------|
b----7------7------7-----7------7------7-----|
g------9------9------------9------9----------|
d--9-----9------9-----7------7------7--------|
a--------------------------------------------|
e--------------------------------------------|

e--------------------------------------------|
b-----9-------9-------9-------9-------10/----|
g-------11------11------11------11-----------|
d--11------11------11------11------11--------|
a--------------------------------------------|
e--------------------------------------------|

e--------------------------------------------|
b----7------7------7-----7------7------7-----|
g------9------9------------9------9----------|
d--9-----9------9-----7------7------7--------|
a--------------------------------------------|
e--------------------------------------------|


01:03 synth / keyboards

e---------------12---|-----------------12--9--7----||
b----------10--------|-----------10----------------||
g----11--------------|-----11----------------------||
d-11----11---11------|--11----11----11-------------||
a--------------------|-----------------------------||
e--------------------|-----------------------------||

e---------------12---|-----------------12--9--7----||
b----------10--------|-----------10----------------||
g----11--------------|-----11----------------------||
d-11----11---11------|--11----11----11-------------||
a--------------------|-----------------------------||
e--------------------|-----------------------------||



01:43 - lead guitar 

e--------------------------------------------|
b-----9-------9-------9-------9-------10/----|
g-------11------11------11------11-----------|
d--11------11------11------11------11--------|
a--------------------------------------------|
e--------------------------------------------|

e--------------------------------------------|
b----7------7------7-----7------7------7-----|
g------9------9------------9------9----------|
d--9-----9------9-----7------7------7--------|
a--------------------------------------------|
e--------------------------------------------|


e--------------------------------------------|
b-----9-------9-------9-------9-------10/----|
g-------11------11------11------11-----------|
d--11------11------11------11------11--------|
a--------------------------------------------|
e--------------------------------------------|

e--------------------------------------------|
b----7------7------7-----7------7------7-----|
g------9------9------------9------9----------|
d--9-----9------9-----7------7------7--------|
a--------------------------------------------|
e--------------------------------------------|

e--------------------------------------------|
b-----9-------9-------9-------9-------10/----|
g-------11------11------11------11-----------|
d--11------11------11------11------11--------|
a--------------------------------------------|
e--------------------------------------------|

e--------------------------------------------|
b----7------7------7-----7------7------7-----|
g------9------9------------9------9----------|
d--9-----9------9-----7------7------7--------|
a--------------------------------------------|
e--------------------------------------------|

e--------------------------------------------|
b-----9-------9-------9-------9-------10/----|
g-------11------11------11------11-----------|
d--11------11------11------11------11--------|
a--------------------------------------------|
e--------------------------------------------|

e--------------------------------------------|
b----7------7------7-----7------7------7-----|
g------9------9------------9------9----------|
d--9-----9------9-----7------7------7--------|
a--------------------------------------------|
e--------------------------------------------|


02:14 

e---------------12---|-----------------12----|
b----------10--------|-----------10----------|
g----11--------------|-----11----------------|
d-11----11---11------|--11----11----11-------|
a--------------------|-----------------------|
e--------------------|-----------------------|


e---------------12---|-----------------10--9----|
b----------10--------|-----------10-------------|
g----11--------------|-----11-------------------|
d-11----11---11------|--11----11----11----------|
a--------------------|--------------------------|
e--------------------|--------------------------|


2:30 - lead opening chord with echo

e----------------------|---------------------|
b----------------------|---------------------|
g--11---11-------------|---------------------|
d--11---11-------0-----|-----2-2-------------|
a---9----9---4~-----2~-|-4~------2-2~--5-4---|
e--------9-------------|---------------------|


02:54 synth / keyboards

e---------------12---|-----------------12--9--7----||
b----------10--------|-----------10----------------||
g----11--------------|-----11----------------------||
d-11----11---11------|--11----11----11-------------||
a--------------------|-----------------------------||
e--------------------|-----------------------------||

e---------------12---|-----------------12--9--7----||
b----------10--------|-----------10----------------||
g----11--------------|-----11----------------------||
d-11----11---11------|--11----11----11-------------||
a--------------------|-----------------------------||
e--------------------|-----------------------------||


2:54 guitar 

e--------------------------------------------|
b-----9-------9-------9-------9-------10/----|
g-------11------11------11------11-----------|
d--11------11------11------11------11--------|
a--------------------------------------------|
e--------------------------------------------|

e--------------------------------------------|
b----7------7------7-----7------7------7-----|
g------9------9------------9------9----------|
d--9-----9------9-----7------7------7--------|
a--------------------------------------------|
e--------------------------------------------|


e--------------------------------------------|
b-----9-------9-------9-------9-------10/----|
g-------11------11------11------11-----------|
d--11------11------11------11------11--------|
a--------------------------------------------|
e--------------------------------------------|

e--------------------------------------------|
b----7------7------7-----7------7------7-----|
g------9------9------------9------9----------|
d--9-----9------9-----7------7------7--------|
a--------------------------------------------|
e--------------------------------------------|

e--------------------------------------------|
b-----9-------9-------9-------9-------10/----|
g-------11------11------11------11-----------|
d--11------11------11------11------11--------|
a--------------------------------------------|
e--------------------------------------------|

e--------------------------------------------|
b----7------7------7-----7------7------7-----|
g------9------9------------9------9----------|
d--9-----9------9-----7------7------7--------|
a--------------------------------------------|
e--------------------------------------------|

e--------------------------------------------|
b-----9-------9-------9-------9-------10/----|
g-------11------11------11------11-----------|
d--11------11------11------11------11--------|
a--------------------------------------------|
e--------------------------------------------|

e--------------------------------------------|
b----7------7------7-----7------7------7-----|
g------9------9------------9------9----------|
d--9-----9------9-----7------7------7--------|
a--------------------------------------------|
e--------------------------------------------|


e--------------------------------------||
b--------------TAB---------------------||
g------------DEDICATED2----------------||
d-----------xxEADAOINxx----------------||
a--------------------------------------||
e--------------------------------------||


Tablature Notation:
/ . . . slide 
|| . . . play bar twice 
~ . . . vibrato


This was actually really fun to figure out and tab, probably because it didn't 
take me long at all. Hope you enjoy it and any problems let me know. Rate and Comment!!

comments but constructive criticism only please.

01.06.09
            
Submit corrections

comments powered by Disqus
↑ Back to top | God Is An Astronaut Tabs for Coda. Lyrics for acoustic guitar and electric guitar. Tablatures and chords are parodies/interpretations of the original songs. You may use it for private study, scholarship, research or language learning purposes only