>
 >
New Years End

New Years End Guitar Tabs

God Is An Astronaut - New Years End chords, tabs, tablatures, lyrics

Guitar lessons | Add/correct | Request | Top 50 tabs Artists:  A B C D E F G H I J K L M N O P Q R S T U V W X Y Z 0-9

New Years End Guitar Tabs – God Is An Astronaut

CD, Sheet music, Poster

Do you like New Years End? Share with your friends now
Tabs
---------------------------------------------------------------------------------
---------------------------------------------------------------------------------
4/8/10

Tuning: Drop D

This one took me relatively little time to figure out, and I think most of you will have
easy and fun time learning this.  I was a bit disturbed by the lack of GIAA tabs
so I thought Iíd contribute.  I didnít include the rhythm guitar because itís very hard 
hear, but I may update this.  Bass intro included for your pleasure, and to correct the other
intro tab thatís been posted.
Enjoy!

Bass intro - 0:00
G|----12-------12-------12------------------------------------------------------|
D|-------14-------14-------14-14/16-16-16---------------------------------------|
A|----------------------------------------14/17-17-17---------------------------|
D|--14------14-------14---------------------------------------------------------|

G|-----11-------11---------0----------------------------------------------------|
D|--------12-------12--------12-12/10-10----------------------------------------|
A|------------------------------------------------------------------------------|
D|--12-------12---------10------------------------------------------------------|

G|----12-------12-------12------------------------------------------------------|
D|-------14-------14-------14-14/16-16-16---------------------------------------|
A|----------------------------------------14/17-17-17---------------------------|
D|--14------14-------14---------------------------------------------------------|

G|-----11-------11---------9----------------------------------------------------|
D|------------------------------------------------------------------------------|
A|--------12-------12--------10/12-12-12-10-------------------------------------|
D|--12-------12---------10------------------------------------------------------|

Verse A, Guitar 1 comes in over (Bass intro) - 0:22
e|------------------------------------------------------------------------------|
B|------------------------------------------------------------------------------|
G|-------2---0---------0---------0----------2---0---------0---------0-------0---|
D|-0-2-5---5---5-5/7-7---7-7/9-9---9--0-2-5---5---5-5/7-7---7-7\2-2---2-2-0---0-|
A|------------------------------------------------------------------------------|
D|------------------------------------------------------------------------------|

e|------------------------------------------------------------------------------|
B|------------------------------------------------------------------------------|
G|-------2---0---------0---------0----------2---0---------0---7-9-7-------------|
D|-0-2-5---5---5-5/7-7---7-7/9-9---9--0-2-5---5---5-5/7-7-----------9-7h9-9\7---|
A|------------------------------------------------------------------------------|
D|------------------------------------------------------------------------------|

Verse B - 0:42
e|------------------------------------------------------------------------------|
B|------------------------------------------------------------------------------|
G|-------4---0---------0---------0----------4---0---------0---------0-------0---|
D|-0-2/5---5---5-5/7-7---7-7/9-9---9--0-2/5---5---5-5/7-7---7-7\2-2---2-2-0---0-|
A|------------------------------------------------------------------------------|
D|------------------------------------------------------------------------------|

e|------------------------------------------------------------------------------|
B|------------------------------------------------------------------------------|
G|-------4---0---------0---------0----------4---0---------0--------9------------|
D|-0-2/5---5---5-5/7-7---7-7/9-9---9--0-2/5---5---5-5/7-7---5-9/12---12-9----0--|
A|------------------------------------------------------------------------12----|
D|------------------------------------------------------------------------------|

Verse C - 1:02
e|------------------------------------------------------------------------------|
B|------------------------------------------------------------------------------|
G|-------2---0---------0---------0----------2---0---------0---------0-------0---|
D|-0-2-5---5---5-5/7-7---7-7/9-9---9--0-2-5---5---5-5/7-7---7-7\2-2---2-2-0---0-|
A|------------------------------------------------------------------------------|
D|------------------------------------------------------------------------------|

e|------------------------------------------------------------------------------|
B|------------------------------------------------------------------------------|
G|-------4---0---------0---------0----------4---0---------0--------9------------|
D|-0-2/5---5---5-5/7-7---7-7/9-9---9--0-2/5---5---5-5/7-7---5-9/12---12-9----0--|
A|------------------------------------------------------------------------12----|
D|------------------------------------------------------------------------------|

Chorus - 1:23
slide up to 12 at end of phrases with pinky in order to fret the 9 on the downbeat
e|-----------------------------------10---10h12p10-10---------------------------|
B|----12---12---13----13-12---12-----------------------12\10--10\8-8/-----------|
G|--9----9----9-----9-------9---------------------------------------------------|
D|------------------------------------------------------------------------------|
A|------------------------------------------------------------------------------|
D|------------------------------------------------------------------------------|

e|-----------------------------------10---10h12p10-10---------------------------|
B|----12---12---13---13-12---12------------------------12-12-10/----------------|
G|--9----9----9----9-------9----------------------------------------------------|
D|------------------------------------------------------------------------------|
A|------------------------------------------------------------------------------|
D|------------------------------------------------------------------------------|

e|-----------------------------------10---10h12p10-10---------------------------|
B|----12---12---13----13-12---12-----------------------12\10--10\8-8/-----------|
G|--9----9----9-----9-------9---------------------------------------------------|
D|------------------------------------------------------------------------------|
A|------------------------------------------------------------------------------|
D|------------------------------------------------------------------------------|

e|-----------------------------------10---10h12p10-10---------------------------|
B|----12---12---13---13-12---12------------------------12-12\8-8----------------|
G|--9----9----9----9-------9----------------------------------------------------|
D|------------------------------------------------------------------------------|
A|------------------------------------------------------------------------------|
D|------------------------------------------------------------------------------|

Verse D - 2:00
e|------------------------------------------------------------------------------|
B|------------------------------------------------------------------------------|
G|-------4---0---------0---------0----------4---0---------0---------0-------0---|
D|-0-2/5---5---5-5/7-7---7-7/9-9---9--0-2/5---5---5-5/7-7---7-7\2-2---2-2-0---0-|
A|------------------------------------------------------------------------------|
D|------------------------------------------------------------------------------|

e|------------------------------------------------------------------------------|
B|------------------------------------------------------------------------------|
G|-------4---0---------0---------0----------4---0---------0--------9------------|
D|-0-2/5---5---5-5/7-7---7-7/9-9---9--0-2/5---5---5-5/7-7---5-9/12---12-9----0--|
A|------------------------------------------------------------------------12----|
D|------------------------------------------------------------------------------|

Verse E - 2:21
e|------------------------------------------------------------------------------|
B|------------------------------------------------------------------------------|
G|-------2---0---------0---------0----------2---0---------0---------0-------0---|
D|-0-2-5---5---5-5/7-7---7-7/9-9---9--0-2-5---5---5-5/7-7---7-7\2-2---2-2-0---0-|
A|------------------------------------------------------------------------------|
D|------------------------------------------------------------------------------|

e|------------------------------------------------------------------------------|
B|------------------------------------------------------------------------------|
G|-------4---0---------0---------0----------2---0---------0---7-9-7-------------|
D|-0-2/5---5---5-5/7-7---7-7/9-9---9--0-2-5---5---5-5/7-7-----------9-7h9-9\7---|
A|------------------------------------------------------------------------------|
D|------------------------------------------------------------------------------|

Bridge - 2:42
e|------------------------------------------------------------------------------|
B|--8-8-8-8-7-7-7-7-10-10-10-10-12-12-12-12-------------------------------------|
G|--9-9-9-9-9-9-9-9-9--9--9--9--9--9--9--9--------------------------------------|
D|------------------------------------------------------------------------------|
A|------------------------------------------------------------------------------|
D|------------------------------------------------------------------------------|

e|------------------------------------------------------------------------------|
B|------------------------------------------------------------------------------|
G|--7/9-9-9--7-7--/11-11-11-11--9-9---------------------------------------------|
D|--5/7-7-7--5-5--/9--9--9--9---7-7---------------------------------------------|
A|------------------------------------------------------------------------------|
D|------------------------------------------------------------------------------|

e|------------------------------------------------------------------------------|
B|--8-8-8-8-7-7-7-7-------------------------------------------------------------|
G|--9-9-9-9-9-9-9-9--7/9-9-9--7-7-----------------------------------------------|
D|-------------------5/7-7-7--5-5-----------------------------------------------|
A|------------------------------------------------------------------------------|
D|------------------------------------------------------------------------------|

e|------------------------------------------------------------------------------|
B|--/15-15-15-15-12--12-12-10-10/12-12-12--10-10--------------------------------|
G|---0--0--0--0--0---0--0--0--0-----0--0---0--0---------------------------------|
D|------------------------------------------------------------------------------|
A|------------------------------------------------------------------------------|
D|------------------------------------------------------------------------------|

Chorus - 3:00
e|-----------------------------------10---10h12p10-10---------------------------|
B|----12---12---13----13-12---12-----------------------12\10--10\8-8//----------|
G|--9----9----9-----9-------9---------------------------------------------------|
D|------------------------------------------------------------------------------|
A|------------------------------------------------------------------------------|
D|------------------------------------------------------------------------------|

e|-----------------------------------10---10h12p10-10---------------------------|
B|----12---12---13---13-12---12------------------------12-12-10//---------------|
G|--9----9----9----9-------9----------------------------------------------------|
D|------------------------------------------------------------------------------|
A|------------------------------------------------------------------------------|
D|------------------------------------------------------------------------------|

e|-----------------------------------10---10h12p10-10---------------------------|
B|----12---12---13----13-12---12--------------------------12--12\8-8------------|
G|--9----9----9-----9-------9---------------------------------------------------|
D|-----------------------------------------------------12-----------------------|
A|------------------------------------------------------------------------------|
D|------------------------------------------------------------------------------|

Bridge 2 - 3:28
e|------------------------------------------------------------------------------|
B|--------3--------------3------------------------------------------------------|
G|----0------0-4------------0---0--2/4-4-4--4-4--/9-9\7-7-7\4-4p0-4\\-----------|
D|--2---2------------4--------4-------------------------------------------------|
A|-----------------5---5--------------------------------------------------------|
D|------------------------------------------------------------------------------|

e|------------------------------------------------------------------------------|
B|--------3--------------3------------------------------------------------------|
G|----0------0-4------------0---0--2/4-4-4--2-2--/7-7\4-4-4\2-2-2\\-------------|
D|--2---2------------4--------4-------------------------------------------------|
A|-----------------5---5--------------------------------------------------------|
D|------------------------------------------------------------------------------|

e|------------------------------------------------------------------------------|
B|--------3--------------3------------------------------------------------------|
G|----0------0-4------------0---0--2/4-4-4--4-4--/9-9\7-7-7\4-4p0-4\\-----------|
D|--2---2------------4--------4-------------------------------------------------|
A|-----------------5---5--------------------------------------------------------|
D|------------------------------------------------------------------------------|

e|------------------------------------------------------------------------------|
B|--------3--------------3-----------------------------------------3------------|
G|----0------0-4------------0----/7h9-9-9--7-7\4-4-7-7-7\2-2-2\\---0------------|
D|--2---2------------4--------4------------------------------------2------------|
A|-----------------5---5--------------------------------------------------------|
D|------------------------------------------------------------------------------|


| /  slide up
| \  slide down
| h  hammer-on
| p  pull-off
| ~  vibrato
| +  harmonic
| x  Mute note
===============================================================================





Comments


Popular God Is An Astronaut tabs & chords
The End Of The Beginning Bass Tabs
Age Of Fifth Sun Tabs
All Is Violent All Is Bright Tabs
Coda Tabs
Fire Flies And Empty Skies Tabs
From Dust To The Beyond Tabs
Snowfall Tabs
Sunrise In Aries Tabs
Sunrise In Aries Intro Tabs
Tempus Horizon Tabs


Song lyrics



↑ Back to top | Tablatures and chords are parodies/interpretations of the original songs. You may use it for private study, scholarship, research or language learning purposes only
© 2014 AZChords.com Contact us | Privacy policy | DMCA | Add/correct tabs | Request tabs | Top 50 tabs