» » »

God Is An Astronaut, Age Of Fifth Sun Tabs (ver.1)

Artists:  A B C D E F G H I J K L M N O P Q R S T U V W X Y Z # 

Age Of Fifth Sun Tabs (ver.1)

God Is An Astronaut Tabs
 Rating:
4/5 (6 votes)
Age Of Fifth Sun lessons Tabs too difficult? Try these video lessons and learn fast
                God is an Astronaut - Age Of Fifth Sun

Age of Fifth Sun
Track #08

Tuning: C#G#C#F#A#D# (Tune down 1/2 step)

Guitar enters (01:25) 

|---------------------------------|--------------------------------|
|---------------------------------|--------------------------------|
|---------7h9---5h7--9------------|---------7h9---5h7--9-----------|
|---7h8-----------------8-7-5s7---|---7h8-----------------8-7------|
|---------------------------------|--------------------------------|
|-00----0-----0----0--------------|-00----0-----0----0-------12-10-|

|---------------------------------|---------------------------------| 
|---------------------------------|---------------------------------|
|----5h7---7h9-----5----5-5-------|----5h7---7h9-----5----5-5-------|
|---------------------------7-5-7-|---------------------------8-8-7-|
|---------------------------------|---------------------------------|
|-88-----8-----88----8------------|-88-----8-----88----8------------| x4


(02:29)

|---------------------------------|---------------------------------|
|---------------------------------|---------------------------------|
|---------------------------------|---------------------------------|
|---7h8---------------------------|-------7-------------------------|
|-------5p3-3-5-1-3-5-0-----------|---8-8---5p3-3-5-1-3-5-0---------|
|-00--------------------5-3---0---|-------------------------5-3---0-|

|---------------------------------|---------------------------------|
|---------------------------------|---------------------------------|
|---------------------------------|---------------------------------|
|-00-7-8-0-5-7-0-3-5-0-0-3-0------|-00-7-8-0-5-7-0-3-5-0-0-3-0------|
|----------------------------3-0--|----------------------------3-0--|
|---------------------------------|---------------------------------| x3

(03:16) clean, some delay

|-s5-3-1-1--1-0-------------------|-5-5p3-s8-8-5-5------------------|
|----------------3-3h5p3-1--1--1--|-----------------6-6--55-3-3s1-1-|
|----------------------------2--2-|---------------------------------|
|---------------------------------|---------------------------------|
|---------------------------------|---------------------------------|
|---------------------------------|---------------------------------| x4

(04:23)

|---------------------------------|---------------------------------|
|---------------------------------|---------------------------------|
|---------------------------------|-7-10-7-----7-10---7-7-7----7-10-|
|-----<7>----<7>------<7>----<7>--|--------<7>-------------<7>------|
|-555------5------555------5------|---------------------------------|
|---------------------------------|---------------------------------|
      
|---------------------------------|
|---------------------------------|
|---------------------------------|
|------7------3-------------------|
|-555--5---5--5--------7---5---5--|
|-----------------888--8----------| x4


(05:12)

|---------------------------------|--------------------------------|
|---------------------------------|--------------------------------|
|---------7h9---5h7--9------------|---------7h9---5h7--9-----------|
|---7h8-----------------8-7-5s7---|---7h8-----------------8-7------|
|---------------------------------|--------------------------------|
|-00----0-----0----0--------------|-00----0-----0----0-------12-10-| x6


Some parts are still missing (Guitar 2)
Comment please
greez
            
Submit corrections

comments powered by Disqus
↑ Back to top | God Is An Astronaut Tabs for Age Of Fifth Sun. Lyrics for acoustic guitar and electric guitar. Tablatures and chords are parodies/interpretations of the original songs. You may use it for private study, scholarship, research or language learning purposes only