» » »

God Is An Astronaut, Frozen Twilight Tabs (ver.1)

Artists:  A B C D E F G H I J K L M N O P Q R S T U V W X Y Z # 

Frozen Twilight Tabs (ver.1)

God Is An Astronaut Tabs
Rating:
5/5 (2 votes)
Frozen Twilight lessons Tabs too difficult? Try these video lessons and learn fast
                -------------------------------------------------------------------------------
-------------------------------------------------------------------------------

Tuning: Standard

Main Riff:
Repeat 2x
[00:00 - 00:46]

e|-----8------8------8------8------8------8------8------8------8-------------|
B|-------0------0-------------0------0-------------0------0------------------|
G|---------------------------------------------------------------------------|
D|---7------7------7------5------5------5------0------0------0---------------|
A|---------------------------------------------------------------------------|
E|---------------------------------------------------------------------------|

e|-----5------5------3-------------8------8------8-------10------10------10--|
B|-------0---------------------------0------0---------------0----------------|
G|---------------------------------------------------------------------------|
D|---3------3------3------3------7------7------7------10------10------10-----|
A|---------------------------------------------------------------------------|
E|---------------------------------------------------------------------------|

e|-----7------7------8-------------5------5------3---------------------------|
B|-------0---------------------------0---------------------------------------|
G|---------------------------------------------------------------------------|
D|---5------5------5------5------3------3------3-----------------------------|
A|---------------------------------------------------------------------------|
E|---------------------------------------------------------------------------|

Riff 2:
Repeat 2x
[00:47 - 1:07]

e|-----3------3------3------5------5------5------7------7------8-------------|
B|-------0------0-------------0------0-------------0-------------------------|
G|---------------------------------------------------------------------------|
D|---2------2------2------5------5------5------------------------------------|
A|---------------------------------------------5------5------5------5--------|
E|---------------------------------------------------------------------------|

e|-----3------3------3------3------3------3------5------5------5-------------|
B|-------0------0-------------0------0-------------0------0------------------|
G|---------------------------------------------------------------------------|
D|---3------3------3------2------2------2------5------5------5---------------|
A|---------------------------------------------------------------------------|
E|---------------------------------------------------------------------------|

e|-----7------7------8------------3------3------3------3------3------3-------|
B|-------0--------------------------0------0-------------0------0------------|
G|---------------------------------------------------------------------------|
D|------------------------------3------3------3------------------------------|
A|---5------5------5------5-------------------------3------3------3----------|
E|---------------------------------------------------------------------------|

Repeat Main Riff: 2x 
[01:08 - 01:46]

Repeat Riff 2: 2x
[01:47 - 02:18]

Riff 3 (background guitar):
Repeat until end of song
[02:18 - end ]

e|-----3------3------3------3------3------3------3------3------3-------------|
B|-------0------0-------------0------0-------------0------0------------------|
G|---------------------------------------------------------------------------|
D|---2------2------2------0------0------0------------------------------------|
A|---------------------------------------------2------2------2---------------|
E|---------------------------------------------------------------------------|

e|-----3------3------3------3------3------3------3------3------3-------------|
B|-------0------0-------------0------0-------------0------0------------------|
G|---------------------------------------------------------------------------|
D|------------------------2------2------2------0------0------0---------------|
A|---3------3------3---------------------------------------------------------|
E|---------------------------------------------------------------------------|

e|-----3------3------3------3------3------3----------------------------------|
B|-------0------0-------------0------0---------------------------------------|
G|---------------------------------------------------------------------------|
D|---------------------------------------------------------------------------|
A|---3------3------3------2------2------2------------------------------------|
E|---------------------------------------------------------------------------|

Riff 4:
Repeat 5x
[02:38 - 04:15]

e|---------------------------------------------------------------------------|
B|---7-7-7-7-7-7-7-7\5-5-5-5-5-5-5-5/10-10-10-10-10-10-10-10\3-3-3-3-3-3-3-3-|
G|---------------------------------------------------------------------------|
D|---------------------------------------------------------------------------|
A|---------------------------------------------------------------------------|
E|---------------------------------------------------------------------------|

e|---------------------------------------------------------------------------|
B|---7-7-7-7-7-7-7-7/10\8-8-8-8-8-8-8-8/12-12-12-12-12-12-12-12\10-10-10-10--|
G|---------------------------------------------------------------------------|
D|---------------------------------------------------------------------------|
A|---------------------------------------------------------------------------|
E|---------------------------------------------------------------------------|


e|---------------------------------------------------------------------------|
B|---10-10-10-10-10----------------------------------------------------------|
G|---------------------------------------------------------------------------|
D|---------------------------------------------------------------------------|
A|---------------------------------------------------------------------------|
E|---------------------------------------------------------------------------|

Riff 5:
Repeat 4x
[04:40 - 05:55]

e|---------------------------------------------------------------------------|
B|---7-7--7-7/8-8--8-8\7-7--7-7\3-3--3-3/7-7--7-7/10-10--10-10/12-12--12-12--|
G|---------------------------------------------------------------------------|
D|---------------------------------------------------------------------------|
A|---------------------------------------------------------------------------|
E|---------------------------------------------------------------------------|

e|---------------------------------------------------------------------------|
B|---\10-10--10-10-----------------------------------------------------------|
G|---------------------------------------------------------------------------|
D|---------------------------------------------------------------------------|
A|---------------------------------------------------------------------------|
E|---------------------------------------------------------------------------|

| /  slide up
| \  slide down
| h  hammer-on
| p  pull-off
| ~  vibrato
| +  harmonic
| x  Mute note
===============================================================================
            

comments powered by Disqus
↑ Back to top | God Is An Astronaut Tabs for Frozen Twilight. Lyrics for acoustic guitar and electric guitar. Tablatures and chords are parodies/interpretations of the original songs. You may use it for private study, scholarship, research or language learning purposes only