>
 >
Dust Echoes

Dust Echoes Guitar Tabs

God Is An Astronaut - Dust Echoes chords, tabs, tablatures, lyrics

Guitar lessons | Add/correct | Request | Top 50 tabs Artists:  A B C D E F G H I J K L M N O P Q R S T U V W X Y Z 0-9

Dust Echoes Guitar Tabs – God Is An Astronaut

CD, Sheet music, Poster

Do you like Dust Echoes? Share with your friends now
Tabs
                                Dust And Echoes                                 


                                                             God is an Astronaut



     Q    Q    Q    Q       Q    Q    Q    Q       Q    Q    Q    Q     
E||-------2--------------|--2--------------3----|------------2---------|
B||------------0---------|-------0--------------|--0--------------0----|
G||----------------------|----------------------|----------------------|
D||----------------------|----------------------|----------------------|
A||----------------------|----------------------|----------------------|
E||--0--------------0----|------------0---------|-------0--------------|


  Q    Q    Q    Q       Q    Q    Q    Q       Q    Q    Q    Q     
-------2--------------|-------0--------------|--0--------------0----|
------------0---------|------------3---------|-------3--------------|
----------------------|----------------------|----------------------|
----------------------|----------------------|----------------------|
----------------------|----------------------|----------------------|
--0--------------0----|--3--------------3----|------------3---------|


  Q    Q    Q    Q       Q    Q    Q    Q       Q    Q    Q    Q     
-------0--------------|--0-------------------|-------2--------------|
------------7---------|-------7---------0----|------------0---------|
----------------------|----------------------|----------------------|
----------------------|----------------------|----------------------|
----------------------|----------------------|----------------------|
--7--------------7----|------------7---------|--0--------------0----|


  Q    Q    Q    Q       Q    Q    Q    Q       Q    Q    Q    Q     
--2--------------3----|------------5---------|-------5--------------|
-------0--------------|--0--------------0----|------------0---------|
----------------------|----------------------|----------------------|
----------------------|----------------------|----------------------|
----------------------|----------------------|----------------------|
------------0---------|-------0--------------|--0--------------0----|


  Q    Q    Q    Q       Q    Q    Q    Q        Q    Q    Q    Q     
-------0--------------|--0--------------0----|--------0--------------|
------------3---------|-------3--------------|-------------7---------|
----------------------|----------------------|-----------------------|
----------------------|----------------------|-----------------------|
--3--------------3----|------------3---------|-----------------------|
----------------------|----------------------|--/7--------------7----|


  Q    Q    Q    Q       Q    Q    Q    Q       Q    Q    Q    Q     
--0-------------------|-------2--------------|--2--------------3----|
-------7---------0----|------------0---------|-------0--------------|
----------------------|----------------------|----------------------|
----------------------|----------------------|----------------------|
----------------------|----------------------|----------------------|
------------7---------|--0--------------0----|------------0---------|


  Q    Q    Q    Q       Q    Q    Q    Q       Q    Q    Q    Q     
------------2---------|-------2--------------|-------0--------------|
--0--------------0----|------------0---------|------------3---------|
----------------------|----------------------|----------------------|
----------------------|----------------------|----------------------|
----------------------|----------------------|----------------------|
-------0--------------|--0--------------0----|--3--------------3----|


  Q    Q    Q    Q       Q    Q    Q    Q       Q    Q    Q    Q     
--0--------------0----|-------0--------------|--0-------------------|
-------3--------------|------------7---------|-------7---------0----|
----------------------|----------------------|----------------------|
----------------------|----------------------|----------------------|
----------------------|----------------------|----------------------|
------------3---------|--7--------------7----|------------7---------|


  Q    Q    Q    Q       Q    Q    Q    Q       Q    Q    Q    Q     
-------2--------------|--2--------------3----|------------5---------|
------------0---------|-------0--------------|--0--------------0----|
----------------------|----------------------|----------------------|
----------------------|----------------------|----------------------|
----------------------|----------------------|----------------------|
--0--------------0----|------------0---------|-------0--------------|


  Q    Q    Q    Q       Q    Q    Q    Q       Q    Q    Q    Q     
-------5--------------|-------0--------------|--0--------------0----|
------------0---------|------------3---------|-------3--------------|
----------------------|----------------------|----------------------|
----------------------|----------------------|----------------------|
----------------------|--3--------------3----|------------3---------|
--0--------------0----|----------------------|----------------------|


   Q    Q    Q    Q       Q    Q    Q    Q       Q    Q    Q    Q     
--------0--------------|--0-------------------|-------2--------------|
-------------7---------|-------7---------0----|------------0---------|
-----------------------|----------------------|----------------------|
-----------------------|----------------------|----------------------|
-----------------------|----------------------|----------------------|
--/7--------------7----|------------7---------|--0--------------0----|


  Q    Q    Q    Q       Q    Q    Q    Q       Q    Q    Q    Q     
--2--------------2----|------------2---------|-------2--------------|
-------0--------------|--0--------------0----|------------0---------|
----------------------|----------------------|----------------------|
----------------------|----------------------|----------------------|
----------------------|----------------------|----------------------|
------------0---------|-------0--------------|--0--------------0----|


  Q    Q    Q    Q       Q    Q    Q    Q       Q    Q    Q    Q     
-------5--------------|--5--------------5----|------------5---------|
------------7---------|-------7--------------|--7--------------7----|
----------------------|----------------------|----------------------|
----------------------|----------------------|----------------------|
----------------------|----------------------|----------------------|
--7--------------7----|------------7---------|-------7--------------|


  Q    Q    Q    Q       Q    Q    Q    Q       Q    Q    Q    Q     
-------9--------------|--9--------------9----|------------9---------|
------------8---------|-------8--------------|--8--------------8----|
----------------------|----------------------|----------------------|
----------------------|----------------------|----------------------|
--0--------------0----|------------0---------|-------0--------------|
----------------------|----------------------|----------------------|


  Q    Q    Q    Q       Q    Q    Q    Q       Q    Q    Q    Q     
-------9---------5----|------------5---------|-------5--------------|
----------------------|--0--------------0----|------------0---------|
----------------------|----------------------|----------------------|
----------------------|----------------------|----------------------|
--0-------------------|----------------------|----------------------|
------------3---------|-------3--------------|--3--------------3----|


  Q    Q    Q    Q       Q    Q    Q    Q       Q    Q    Q    Q     
--5--------------5----|-------2--------------|--2--------------2----|
-------0--------------|------------0---------|-------0--------------|
----------------------|----------------------|----------------------|
----------------------|----------------------|----------------------|
----------------------|----------------------|----------------------|
------------3---------|--0--------------0----|------------0---------|


  Q    Q    Q    Q       Q    Q    Q    Q       Q    Q    Q    Q     
------------2---------|-------2--------------|-------5--------------|
--0--------------0----|------------0---------|------------7---------|
----------------------|----------------------|----------------------|
----------------------|----------------------|----------------------|
----------------------|----------------------|----------------------|
-------0--------------|--0--------------0----|--7--------------7----|


  Q    Q    Q    Q       Q    Q    Q    Q       Q    Q    Q    Q     
--5--------------5----|------------5---------|-------9--------------|
-------7--------------|--7--------------7----|------------8---------|
----------------------|----------------------|----------------------|
----------------------|----------------------|----------------------|
----------------------|----------------------|--0--------------0----|
------------7---------|-------7--------------|----------------------|


  Q    Q    Q    Q       Q    Q    Q    Q       Q    Q    Q    Q     
--9--------------9----|------------9---------|-------9---------5----|
-------8--------------|--8--------------8----|----------------------|
----------------------|----------------------|----------------------|
----------------------|----------------------|----------------------|
------------0---------|-------0--------------|--0-------------------|
----------------------|----------------------|------------3---------|


  Q    Q    Q    Q       Q    Q    Q    Q       Q    Q    Q    Q     
------------5---------|-------5--------------|--5--------------5----|
--0--------------0----|------------0---------|-------0--------------|
----------------------|----------------------|----------------------|
----------------------|----------------------|----------------------|
----------------------|----------------------|----------------------|
-------3--------------|--3--------------3----|------------3---------|


  Q    Q    Q    Q       Q    Q    Q    Q       Q    Q    Q    Q     
----------------------|----------------------|----------------------|
--0-------------------|----------------------|----------------------|
----------------------|----------------------|----------------------|
----------------------|----------------------|----------------------|
----------------------|----------------------|----------------------|
------------0---------|-------0----0---------|------------0---------|


  Q    Q    Q    Q       Q    Q    Q    Q       Q    Q    Q    Q     
----------------------|----------------------|----------------------|
----------------------|----------------------|----------------------|
----------------------|----------------------|----------------------|
----------------------|----------------------|----------------------|
----------------------|----------------------|----------------------|
-------0----0---------|------------3---------|-------3----3---------|


  Q    Q    Q    Q       Q    Q    Q    Q       Q    Q    Q    Q     
----------------------|----------------------|----------------------|
----------------------|----------------------|----------------------|
----------------------|----------------------|----------------------|
----------------------|----------------------|----------------------|
----------------------|----------------------|----------------------|
------------7---------|-------7----7---------|------------0---------|


  Q    Q    Q    Q       Q    Q    Q    Q       Q    Q    Q    Q     
----------------------|----------------------|----------------------|
----------------------|----------------------|----------------------|
----------------------|----------------------|----------------------|
----------------------|----------------------|----------------------|
----------------------|----------------------|----------------------|
-------0----0---------|------------0---------|-------0----0---------|


  Q    Q    Q    Q       Q    Q    Q    Q       Q    Q    Q    Q     
----------------------|----------------------|----------------------|
----------------------|----------------------|----------------------|
----------------------|----------------------|----------------------|
----------------------|----------------------|----------------------|
----------------------|----------------------|----------------------|
------------3---------|-------3----3---------|------------7---------|


  Q    Q    Q    Q       Q    Q    Q    Q       Q    Q    Q    Q     
----------------------|----------------------|----------------------|
----------------------|----------------------|----------------------|
----------------------|----------------------|----------------------|
----------------------|----------------------|----------------------|
----------------------|----------------------|----------------------|
-------7----7---------|------------0---------|-------0----0---------|


  Q    Q    Q    Q       Q    Q    Q    Q       Q    Q    Q    Q     
----------------------|----------------------|----------------------|
----------------------|----------------------|----------------------|
----------------------|----------------------|----------------------|
----------------------|----------------------|----------------------|
----------------------|----------------------|----------------------|
------------0---------|-------0----0---------|------------3---------|


  Q    Q    Q    Q       Q    Q    Q    Q       Q    Q    Q    Q     
----------------------|----------------------|----------------------|
----------------------|----------------------|----------------------|
----------------------|----------------------|----------------------|
----------------------|----------------------|----------------------|
----------------------|----------------------|----------------------|
-------3----3---------|------------7---------|-------7----7---------|


  Q    Q    Q    Q       Q    Q    Q    Q       Q    Q    Q    Q     
----------------------|----------------------|----------------------|
----------------------|----------------------|----------------------|
----------------------|----------------------|----------------------|
----------------------|----------------------|----------------------|
----------------------|----------------------|----------------------|
------------0---------|-------0----0---------|------------0---------|


  Q    Q    Q    Q       Q    Q    Q    Q       Q    Q    Q    Q     
----------------------|----------------------|----------------------|
----------------------|----------------------|----------------------|
----------------------|----------------------|----------------------|
----------------------|----------------------|----------------------|
----------------------|----------------------|----------------------|
-------0----0---------|------------3---------|-------3----3---------|


  Q    Q    Q    Q       Q    Q    Q    Q       Q    Q     
-----------------0----|------------0---------|------------|
----------------------|--7--------------7----|-------0----|
----------------------|----------------------|------------|
----------------------|----------------------|------------|
----------------------|----------------------|------------|
------------7---------|-------7--------------|--7---------|


  Q    Q    Q    Q       Q    Q    Q    Q       Q    Q    Q    Q     
-------2--------------|--2--------------2----|------------2---------|
------------0---------|-------0--------------|--0--------------0----|
----------------------|----------------------|----------------------|
----------------------|----------------------|----------------------|
----------------------|----------------------|----------------------|
--0--------------0----|------------0---------|-------0--------------|


  Q    Q    Q    Q       Q    Q    Q    Q       Q    Q    Q    Q     
-------2--------------|-------5--------------|--5--------------5----|
------------0---------|------------7---------|-------7--------------|
----------------------|----------------------|----------------------|
----------------------|----------------------|----------------------|
----------------------|----------------------|----------------------|
--0--------------0----|--7--------------7----|------------7---------|


  Q    Q    Q    Q       Q    Q    Q    Q       Q    Q    Q    Q     
------------5---------|-------9--------------|--9--------------9----|
--7--------------7----|------------8---------|-------8--------------|
----------------------|----------------------|----------------------|
----------------------|----------------------|----------------------|
----------------------|--0--------------0----|------------0---------|
-------7--------------|----------------------|----------------------|


  Q    Q    Q    Q       Q    Q    Q    Q       Q    Q    Q    Q     
------------9---------|-------9---------5----|------------5---------|
--8--------------8----|----------------------|--0--------------0----|
----------------------|----------------------|----------------------|
----------------------|----------------------|----------------------|
-------0--------------|--0-------------------|----------------------|
----------------------|------------3---------|-------3--------------|


  Q    Q    Q    Q       Q    Q    Q    Q       Q    Q    Q    Q     
-------5--------------|--5--------------5----|-------2--------------|
------------0---------|-------0--------------|------------0---------|
----------------------|----------------------|----------------------|
----------------------|----------------------|----------------------|
----------------------|----------------------|----------------------|
--3--------------3----|------------3---------|--0--------------0----|


  Q    Q    Q    Q       Q    Q    Q    Q       Q    Q    Q    Q     
--2--------------2----|------------2---------|-------2--------------|
-------0--------------|--0--------------0----|------------0---------|
----------------------|----------------------|----------------------|
----------------------|----------------------|----------------------|
----------------------|----------------------|----------------------|
------------0---------|-------0--------------|--0--------------0----|


  Q    Q    Q    Q       Q    Q    Q    Q       Q    Q    Q    Q     
-------5--------------|--5--------------5----|------------5---------|
------------7---------|-------7--------------|--7--------------7----|
----------------------|----------------------|----------------------|
----------------------|----------------------|----------------------|
----------------------|----------------------|----------------------|
--7--------------7----|------------7---------|-------7--------------|


  Q    Q    Q    Q       Q    Q    Q    Q       Q    Q    Q    Q     
-------9--------------|--9--------------9----|------------9---------|
------------8---------|-------8--------------|--8--------------8----|
----------------------|----------------------|----------------------|
----------------------|----------------------|----------------------|
--0--------------0----|------------0---------|-------0--------------|
----------------------|----------------------|----------------------|


  Q    Q    Q    Q       Q    Q    Q    Q       Q    Q    Q    Q     
-------9---------5----|------------5---------|-------5--------------|
----------------------|--0--------------0----|------------0---------|
----------------------|----------------------|----------------------|
----------------------|----------------------|----------------------|
--0-------------------|----------------------|----------------------|
------------3---------|-------3--------------|--3--------------3----|


  Q    Q    Q    Q       Q    Q    Q    Q       Q    Q    Q    Q     
--5--------------5----|-------2--------------|--2--------------2----|
-------0--------------|------------0---------|-------0--------------|
----------------------|----------------------|----------------------|
----------------------|----------------------|----------------------|
----------------------|----------------------|----------------------|
------------3---------|--0--------------0----|------------0---------|


  Q    Q    Q    Q       Q    Q    Q    Q       Q    Q    Q    Q     
------------2---------|-------3----2---------|-------2--------------|
--0--------------0----|----------------------|------------0---------|
----------------------|----------------------|----------------------|
----------------------|----------------------|----------------------|
----------------------|----------------------|--3--------------3----|
-------0--------------|--0--------------0----|----------------------|


  Q    Q    Q    Q       Q    Q    Q    Q       Q    Q    Q    Q     
--2--------------2----|------------2---------|-------3----2---------|
-------0--------------|--0--------------0----|----------------------|
----------------------|----------------------|----------------------|
----------------------|----------------------|----------------------|
------------3---------|-------3--------------|--3--------------3----|
----------------------|----------------------|----------------------|


  Q    Q    Q    Q       Q    Q    Q    Q       Q    Q    Q    Q     
-------2--------------|--2--------------2----|------------2---------|
------------0---------|-------0--------------|--0--------------0----|
----------------------|----------------------|----------------------|
----------------------|----------------------|----------------------|
--0--------------0----|------------0---------|-------0--------------|
----------------------|----------------------|----------------------|


  Q    Q    Q    Q       Q    Q    Q    Q       Q    Q    Q    Q     
-------3----2---------|-------0--------------|--0--------------0----|
----------------------|------------3---------|-------3--------------|
----------------------|----------------------|----------------------|
----------------------|----------------------|----------------------|
--0--------------0----|----------------------|----------------------|
----------------------|--3--------------3----|------------3---------|


   Q    Q    Q    Q       Q    Q    Q    Q       Q    Q    Q    Q     
--------0--------------|--0-------------------|-------2--------------|
-------------7---------|-------7---------7----|------------0---------|
-----------------------|----------------------|----------------------|
-----------------------|----------------------|----------------------|
-----------------------|----------------------|----------------------|
--/7--------------7----|------------7---------|--0--------------0----|


  Q    Q    Q    Q       Q    Q    Q    Q       Q    Q    Q    Q     
--2--------------2----|------------2---------|-------3----2---------|
-------0--------------|--0--------------0----|----------------------|
----------------------|----------------------|----------------------|
----------------------|----------------------|----------------------|
----------------------|----------------------|----------------------|
------------0---------|-------0--------------|--0--------------0----|


  Q    Q    Q    Q       Q    Q    Q    Q       Q    Q    Q    Q     
-------2--------------|--2--------------2----|------------2---------|
------------0---------|-------0--------------|--0--------------0----|
----------------------|----------------------|----------------------|
----------------------|----------------------|----------------------|
--3--------------3----|------------3---------|-------3--------------|
----------------------|----------------------|----------------------|


  Q    Q    Q    Q       Q    Q    Q    Q       Q    Q    Q    Q     
-------3----2---------|-------2--------------|--2--------------2----|
----------------------|------------0---------|-------0--------------|
----------------------|----------------------|----------------------|
----------------------|----------------------|----------------------|
--3--------------3----|--0--------------0----|------------0---------|
----------------------|----------------------|----------------------|


  Q    Q    Q    Q       Q    Q    Q    Q       Q    Q    Q    Q     
------------2---------|-------3----2---------|-------0--------------|
--0--------------0----|----------------------|------------3---------|
----------------------|----------------------|----------------------|
----------------------|----------------------|----------------------|
-------0--------------|--0--------------0----|----------------------|
----------------------|----------------------|--3--------------3----|


  Q    Q    Q    Q        Q    Q    Q    Q       Q    Q    Q    Q     
--0--------------0----|--------0--------------|--0-------------------|
-------3--------------|-------------7---------|-------7---------7----|
----------------------|-----------------------|----------------------|
----------------------|-----------------------|----------------------|
----------------------|-----------------------|----------------------|
------------3---------|--/7--------------7----|------------7---------|


  Q    Q    Q    Q       Q    Q    Q    Q       Q    Q    Q    Q     
-------2--------------|--2--------------3----|------------2---------|
------------0---------|-------0--------------|--0--------------0----|
----------------------|----------------------|----------------------|
----------------------|----------------------|----------------------|
----------------------|----------------------|----------------------|
--0--------------0----|------------0---------|-------0--------------|


  Q    Q    Q    Q       Q    Q    Q    Q       Q    Q    Q    Q     
-------2--------------|-------0--------------|--0--------------0----|
------------0---------|------------3---------|-------3--------------|
----------------------|----------------------|----------------------|
----------------------|----------------------|----------------------|
----------------------|----------------------|----------------------|
--0--------------0----|--3--------------3----|------------3---------|


  Q    Q    Q    Q       Q    Q    Q    Q       Q    Q    Q    Q     
-------0--------------|--0-------------------|-------2--------------|
------------7---------|-------7---------0----|------------0---------|
----------------------|----------------------|----------------------|
----------------------|----------------------|----------------------|
----------------------|----------------------|----------------------|
--7--------------7----|------------7---------|--0--------------0----|


  Q    Q    Q    Q       Q    Q    Q    Q       Q    Q    Q    Q     
--2--------------3----|------------5---------|-------5--------------|
-------0--------------|--0--------------0----|------------0---------|
----------------------|----------------------|----------------------|
----------------------|----------------------|----------------------|
----------------------|----------------------|----------------------|
------------0---------|-------0--------------|--0--------------0----|


  Q    Q    Q    Q       Q    Q    Q    Q        Q    Q    Q    Q     
-------0--------------|--0--------------0----|--------0--------------|
------------3---------|-------3--------------|-------------7---------|
----------------------|----------------------|-----------------------|
----------------------|----------------------|-----------------------|
--3--------------3----|------------3---------|-----------------------|
----------------------|----------------------|--/7--------------7----|


  Q    Q    Q    Q       Q    Q    Q    Q       Q    Q    Q    Q     
--0-------------------|-------2--------------|--2--------------3----|
-------7---------0----|------------0---------|-------0--------------|
----------------------|----------------------|----------------------|
----------------------|----------------------|----------------------|
----------------------|----------------------|----------------------|
------------7---------|--0--------------0----|------------0---------|


  Q    Q    Q    Q       Q    Q    Q    Q       Q    Q    Q    Q     
------------2---------|-------2--------------|-------0--------------|
--0--------------0----|------------0---------|------------3---------|
----------------------|----------------------|----------------------|
----------------------|----------------------|----------------------|
----------------------|----------------------|----------------------|
-------0--------------|--0--------------0----|--3--------------3----|


  Q    Q    Q    Q       Q    Q    Q    Q       Q    Q    Q    Q     
--0--------------0----|-------0--------------|--0-------------------|
-------3--------------|------------7---------|-------7---------0----|
----------------------|----------------------|----------------------|
----------------------|----------------------|----------------------|
----------------------|----------------------|----------------------|
------------3---------|--7--------------7----|------------7---------|


  Q    Q    Q    Q       Q    Q    Q    Q       Q    Q    Q    Q     
-------2--------------|--2--------------3----|------------5---------|
------------0---------|-------0--------------|--0--------------0----|
----------------------|----------------------|----------------------|
----------------------|----------------------|----------------------|
----------------------|----------------------|----------------------|
--0--------------0----|------------0---------|-------0--------------|


  Q    Q    Q    Q      
-------5--------------||
------------0---------||
----------------------||
----------------------||
----------------------||
--0--------------0----||




Duration Legend
---------------
W - whole
H - half
Q - quarter
E - 8th
S - 16th
T - 32nd
X - 64th
. - note dotted
|-n-|  - n-tuplets


Tablature Legend
----------------
L - tied note
x - dead note
g - grace note
(n) - ghost note
> - accentuded note
NH - natural harmonic
AH - artificial harmonic
TH - tapped harmonic
SH - semi harmonic
PH - pitch harmonic
h - hammer on
p - pull off
b - bend
br - bendRelease
pb - preBend
pbr - preBendRelease
brb - bendReleaseBend
\n/ - tremolo bar dip
\n - tremolo bar dive
-/n - tremolo bar Release up
/n\ - tremolo bar inverted dip
/n - tremolo bar return
-\n - tremolo bar Release down
S - shift slide
s - legato slide
/ -  slide into from below or out of upwards
\ -  slide into from above or out of downwards
~ - vibrato
W - wide vibrato
tr - trill
TP - tremolo picking
T - tapping
S - slap
P - pop
< - fade in
^ - brush up
v - brush down





Comments


Popular God Is An Astronaut tabs & chords
The End Of The Beginning Bass Tabs
Age Of Fifth Sun Tabs
Coda Tabs
Fire Flies And Empty Skies Tabs
Frozen Twilight Tabs
New Years End Intro Tabs
Radau Tabs
Snowfall Tabs
Sunrise In Aries Tabs
Worlds In Collision Tabs


Song lyrics



↑ Back to top | Tablatures and chords are parodies/interpretations of the original songs. You may use it for private study, scholarship, research or language learning purposes only
© 2014 AZChords.com Contact us | Privacy policy | DMCA | Add/correct tabs | Request tabs | Top 50 tabs