>
 >
Snowfall

Snowfall Guitar Tabs

God Is An Astronaut - Snowfall chords, tabs, tablatures, lyrics

Guitar lessons | Add/correct | Request | Top 50 tabs Artists:  A B C D E F G H I J K L M N O P Q R S T U V W X Y Z 0-9

Snowfall Guitar Tabs – God Is An Astronaut

CD, Sheet music, Poster

Do you like Snowfall? Share with your friends now
Tabs


-----------------------------------------------------------------
-----------------------------------------------------------------

Transcibed all by ear. Standard tuning: EADGBE
Open to suggestions and Please Rate!!


Intro: 00:01

E|---------4--5--|-----------4/--12-------|---------2--4-|----------------|
B|---------------|------------------10\9--|--------------|-------7p5-5-5--|
G|---------------|------------------------|--------------|-------6--------|
D|---------------|------------------------|---------4----|----------------|
A|-----4---------|-----4------------------|-----4--------|----4-----------|
E|--2------------|--2---------------------|--2-----------|--2-------------|


E|---------------|--0--------|-------------|---------|
B|-----2b3r2-----|----2------|-------------|---------|
G|---------------|-----------|-4-----------|--1b2~---|
D|---------------|---------0-|-------0-----|---------|
A|--4------------|-----------|----------4--|---------|
E|---------------|-----------|-------------|---------|


00:23

E|---------4--5--|------------12-------|---------2--4-|----------------|
B|---------------|---------------10\9--|--------------|-------7p5-5-5--|
G|---------------|---------------------|--------------|-------6--------|
D|---------------|---------------------|---------4----|----------------|
A|-----4---------|-----4---------------|-----4--------|----4-----------|
E|--2------------|--2------------------|--2-----------|--2-------------|


E|---------------|--0--------|-------------|---------|
B|-----2b3r2-----|----2------|-------------|---------|
G|---------------|-----------|-4-----------|--1b2~---|
D|---------------|---------0-|-------0-----|---------|
A|--4------------|-----------|----------4--|---------|
E|---------------|-----------|-------------|---------|


E|---------4--5--|------------12-------|---------2--4-|----------------|
B|---------------|---------------10\9--|--------------|-------7p5-5-5--|
G|---------------|---------------------|--------------|-------6--------|
D|---------------|---------------------|---------4----|----------------|
A|-----4---------|-----4---------------|-----4--------|----4-----------|
E|--2------------|--2------------------|--2-----------|--2-------------|


E|---------------|--0--------|-------------|---------|
B|-----2b3r2-----|----2------|-------------|---------|
G|---------------|-----------|-4-----------|--1b2~---|
D|---------------|---------0-|-------0-----|---------|
A|--4------------|-----------|----------4--|---------|
A|---------------|-----------|-------------|---------|


01:09

E|--------------------|----------------------|----0---------|
B|----2---------2-----|----2------------2----|------2-------|
G|--2---1-----2-------|--2---1--1/----2------|--------------|
D|-----------------4--|--------------------4-|--4------4----|
A|--------------------|----------------------|--------------|
E|--------------------|----------------------|--------------|


E|--------------------|----------------------|--------------|
B|----2---------2-----|----2------------2----|------2-------|
G|--2---1-----2-------|--2---1--1/----2------|----2---------|
D|-----------------4--|--------------------4-|--4------4----|
A|--------------------|----------------------|--------------|
E|--------------------|----------------------|--------------|


E|--------------------|----------------------|--------------|
B|----2---------2-----|----2------------2----|------2-------|
G|--2---1-----2-------|--2---1--1/----2------|----2---------|
D|-----------------4--|--------------------4-|--4------4----|
A|--------------------|----------------------|--------------|
E|--------------------|----------------------|--------------|


E|--------------------|----------------------|--------------|
B|----2---------2-----|----2------------2----|------2-------|
G|--2---1-----2-------|--2---1--1/----2------|----2---------|
D|-----------------4--|--------------------4-|--4------4----|
A|--------------------|----------------------|--------------|
E|--------------------|----------------------|--------------|


E|--------------------|-----0---------------|
B|----2---------2-----|-------2-------------|
G|--2---1-----2-------|---------------------|
D|-----------------4--|--4-------4----------|
A|--------------------|---------------------|
E|--------------------|---------------------|


02:03 (with truckloads of distortion!)

E|------------------------|-------------------------|
B|----2---------2-----5\--|----2-----------2----5\--|
G|--2---1-----2-----------|--2---1--1/---2----------|
D|-----------------4------|-------------------4-----|
A|------------------------|-------------------------|
E|------------------------|-------------------------|


E|------------------------|-------------------------|
B|----2---------2-----5\--|----2-----------2----5\--|
G|--2---1-----2-----------|--2---1--1/---2----------|
D|-----------------4------|-------------------4-----|
A|------------------------|-------------------------|
E|------------------------|-------------------------|


E|------------------------|-------------------------|
B|----2---------2-----5\--|----2-----------2----5\--|
G|--2---1-----2-----------|--2---1--1/---2----------|
D|-----------------4------|-------------------4-----|
A|------------------------|-------------------------|
E|------------------------|-------------------------|


02:37

E|---------4--5--|-----------4--12-------|---------2--4-|-----------------|
B|---------------|-----------------10\9--|--------------|-------7p5-5-5/--|
G|---------------|--------2--------------|--------------|-------6-----6/--|
D|---------------|------4----------------|---------4----|-----------------|
A|-----4---------|----4------------------|-----4--------|----4------------|
E|--2------------|--2--------------------|--2-----------|--2--------------|


E|---------------------------------------|
B|-----2b3r2-----------------------------|
G|---------------4b5r4----1b2-1b2~-------|
D|---------------------------------------|
A|--4------------------------------------|
E|---------------------------------------|


E|---------4--5--|-----------4--12-------|---------2--4-|-----------------|
B|---------------|-----------------10\9--|--------------|-------7p5-5-5/--|
G|---------------|--------2--------------|--------------|-------6-----6/--|
D|---------------|------4----------------|---------4----|-----------------|
A|-----4---------|----4------------------|-----4--------|----4------------|
E|--2------------|--2--------------------|--2-----------|--2--------------|


E|---------------------------------------|
B|-----2b3r2-----------------------------|
G|---------------4b5r4----1b2-1b2~-------|
D|---------------------------------------|
A|--4------------------------------------|
E|---------------------------------------|


03:15

E|---------4--5--|---------------12-------|---------2--4-|-----------------|
B|---------------|------------------10\9--|--------------|-------7p5-5-5/--|
G|---------------|------------------------|--------------|-------6-----6/--|
D|---------------|------------------------|---------4----|-----------------|
A|-----4---------|-----4------------------|-----4--------|----4------------|
E|--2------------|--2---------------------|--2-----------|--2--------------|


E|--------------------------------------------|
B|-----2b3r2---2h3p2h3p2h3p2h3p2h3------------|
G|---------------------------------2--4----2--|
D|--------------------------------------------|
A|--4-----------------------------------------|
E|--------------------------------------------|


E|---------4--5--|---------------12-------|---------2--4-|-----------------|
B|---------------|------------------10\9--|--------------|-------7p5-5-5/--|
G|---------------|------------------------|--------------|-------6-----6/--|
D|---------------|------------------------|---------4----|-----------------|
A|-----4---------|-----4------------------|-----4--------|----4------------|
E|--2------------|--2---------------------|--2-----------|--2--------------|


E|--------------------------------------------------|
B|-----2b3r2---2h3p2h3p2h3p2h3p2h3------------------|
G|---------------------------------2--4----2/4--2---|
D|--------------------------------------------------|
A|--4-----------------------------------------------|
E|--------------------------------------------------|


4:01

E|-------------------|-------------------|
B|-------------------|-------------------|
G|--6-6-6-6-6-6-6-6--|-------------------|
D|--6-6-6-6-6-6-6-6--|--7-7-7-7-7-7-7-7--|
A|--4-4-4-4-4-4-4-4--|--7-7-7-7-7-7-7-7--|
E|-------------------|--5-5-5-5-5-5-5-5--|


E|-------------------|-------------------|
B|-------------------|-------------------|
G|--6-6-6-6-6-6-6-6--|-------------------|
D|--6-6-6-6-6-6-6-6--|--4-4-4-4-4-4-4-4--|
A|--4-4-4-4-4-4-4-4--|--4-4-4-4-4-4-4-4--|
E|-------------------|--2-2-2-2-2-2-2-2--|


E|-------------------|-------------------|
B|-------------------|-------------------|
G|--6-6-6-6-6-6-6-6--|-------------------|
D|--6-6-6-6-6-6-6-6--|--7-7-7-7-7-7-7-7--|
A|--4-4-4-4-4-4-4-4--|--7-7-7-7-7-7-7-7--|
E|-------------------|--5-5-5-5-5-5-5-5--|

(4:20)

E|-------------------|-------------------|
B|-------------------|-------------------|
G|--6-6-6-6-6-6-6-6--|-------------------|
D|--6-6-6-6-6-6-6-6--|--4-4-4-4-4-4-4-4--|
A|--4-4-4-4-4-4-4-4--|--4-4-4-4-4-4-4-4--|
E|-------------------|--2-2-2-2-2-2-2-2--|
 |  piano                                |
E|-------------------|------------12--9--|
B|-------------------|-----9--10---------|
G|-------------------|-------------------|
D|-------------------|-------------------|
A|-------------------|-------------------|
E|-------------------|-------------------|


E|-------------------|-------------------|
B|-------------------|-------------------|
G|--6-6-6-6-6-6-6-6--|-------------------|
D|--6-6-6-6-6-6-6-6--|--7-7-7-7-7-7-7-7--|
A|--4-4-4-4-4-4-4-4--|--7-7-7-7-7-7-7-7--|
E|-------------------|--5-5-5-5-5-5-5-5--|
 |  piano                                |
E|------------9--7---|------------12--9--|
B|-----9--10---------|-----9--10---------|
G|-------------------|-------------------|
D|-------------------|-------------------|
A|-------------------|-------------------|
E|-------------------|-------------------|


E|-------------------|-------------------|
B|-------------------|-------------------|
G|--6-6-6-6-6-6-6-6--|-------------------|
D|--6-6-6-6-6-6-6-6--|--4-4-4-4-4-4-4-4--|
A|--4-4-4-4-4-4-4-4--|--4-4-4-4-4-4-4-4--|
E|-------------------|--2-2-2-2-2-2-2-2--|
 |  piano                                |
E|------------9--7---|------------12--9--|
B|-----9--10---------|-----9--10---------|
G|-------------------|-------------------|
D|-------------------|-------------------|
A|-------------------|-------------------|
E|-------------------|-------------------|


E|-------------------|-------------------|
B|-------------------|-------------------|
G|--6-6-6-6-6-6-6-6--|-------------------|
D|--6-6-6-6-6-6-6-6--|--7-7-7-7-7-7-7-7--|
A|--4-4-4-4-4-4-4-4--|--7-7-7-7-7-7-7-7--|
E|-------------------|--5-5-5-5-5-5-5-5--|
 |  piano                                |
E|------------9--7---|------------16-14--|
B|-----9--10---------|-----9--10---------|
G|-------------------|-------------------|
D|-------------------|-------------------|
A|-------------------|-------------------|
E|-------------------|-------------------|


E|-------------------|-------------------|
B|-------------------|-------------------|
G|--6-6-6-6-6-6-6-6--|-------------------|
D|--6-6-6-6-6-6-6-6--|--4-4-4-4-4-4-4-4--|
A|--4-4-4-4-4-4-4-4--|--4-4-4-4-4-4-4-4--|
E|-------------------|--2-2-2-2-2-2-2-2--|
 |  piano                                |
E|------------12--9--|------------9--7---|
B|-----9--10---------|-----9--10---------|
G|-------------------|-------------------|
D|-------------------|-------------------|
A|-------------------|-------------------|
E|-------------------|-------------------|


E|-------------------|-------------------|
B|-------------------|-------------------|
G|--6-6-6-6-6-6-6-6--|-------------------|
D|--6-6-6-6-6-6-6-6--|--7-7-7-7-7-7-7-7--|
A|--4-4-4-4-4-4-4-4--|--7-7-7-7-7-7-7-7--|
E|-------------------|--5-5-5-5-5-5-5-5--|
 |  piano                                |
E|------------12--9--|------------9---7--|
B|-----9--10---------|-----9--10---------|
G|-------------------|-------------------|
D|-------------------|-------------------|
A|-------------------|-------------------|
E|-------------------|-------------------|


E|-------------------|-------------------|
B|-------------------|-------------------|
G|--6-6-6-6-6-6-6-6--|-------------------|
D|--6-6-6-6-6-6-6-6--|--4-4-4-4-4-4-4-4--|
A|--4-4-4-4-4-4-4-4--|--4-4-4-4-4-4-4-4--|
E|-------------------|--2-2-2-2-2-2-2-2--|
 |  piano                                |
E|------------12--9--|-----------9--7----|
B|-----9--10---------|-----9--10---------|
G|-------------------|-------------------|
D|-------------------|-------------------|
A|-------------------|-------------------|
E|-------------------|-------------------|


E|-------------------|-------------------|
B|-------------------|-------------------|
G|--6-6-6-6-6-6-6-6--|-------------------|
D|--6-6-6-6-6-6-6-6--|--7-7-7-7-7-7-7-7--|
A|--4-4-4-4-4-4-4-4--|--7-7-7-7-7-7-7-7--|
E|-------------------|--5-5-5-5-5-5-5-5--|
 |  piano                                |
E|---------16--12-14-|------------12--9--|
B|---9--10-----------|-----9--10---------|
G|-------------------|-------------------|
D|-------------------|-------------------|
A|-------------------|-------------------|
E|-------------------|-------------------|


Repeat this phrase until the end. Note that the piano is an
arrangement for guitar tablatature and that it is not identical,
but rather a very similar arrangement to that of the piano in
the original recording.


Solo - 5:37

E|-------------------------------------------------------------|
B|--10-10-10-10-10-\-9-9-9-9-/-12-12-12-12-12\-10-10-10-10-10--|
G|-------------------------------------------------------------|
D|-------------------------------------------------------------|
A|-------------------------------------------------------------|
E|-------------------------------------------------------------|

E|---------------------------------------------------------||
B|--9-9-9-9-9-\--5-5-5-5-\-2-2-2-2-------------------------||
G|-----------------------------------2-2-2-----------------||
D|---------------------------------------------------------||
A|---------------------------------------------------------||
E|---------------------------------------------------------||


e----------------------------------------------------------------||
b----------------------------------------------------------------||
g------------------ Love always to Éadaoin x --------------------||
d----------------------------------------------------------------||
a----------------------------------------------------------------||
e----------------------------------------------------------------||


Tablature Notation (in order of appearance):

/ - slide up the fretboard
\ - slide down the fretboard
p - pull off
b - bend
~ - vibrato
r - release i.e. 2br3r2 bend that 2nd fretted note up a semi-tone and release to its 
state.
h - hammer on


comments but constructive criticism only please.


10.10.09





Comments


Popular God Is An Astronaut tabs & chords
The End Of The Beginning Bass Tabs
Age Of Fifth Sun Tabs
All Is Violent All Is Bright Tabs
Coda Tabs
Dust Echoes Tabs
New Years End Intro Tabs
Radau Tabs
Route 666 Tabs
Tempus Horizon Tabs
Worlds In Collision Tabs


Song lyrics



↑ Back to top | Tablatures and chords are parodies/interpretations of the original songs. You may use it for private study, scholarship, research or language learning purposes only
© 2014 AZChords.com Contact us | Privacy policy | DMCA | Add/correct tabs | Request tabs | Top 50 tabs