» » »

Garbage, Special Tabs (ver.1)

Artists:  A B C D E F G H I J K L M N O P Q R S T U V W X Y Z # 

Special Tabs (ver.1)

Garbage Tabs
 Rating:
4/5 (4 votes)
Special lessons Tabs too difficult? Try these video lessons and learn fast
                This is my first attempt at tabbing a song, so bear with me.
Standard Tuning (EADGBe)

Intro:
I find it easiest to just put a barre in the first fret for the first
two measures, and then leave your middle finger on the third fret of
the G string (this is helpful throughout the song)

Clean guitar
G---1-3---1-3---3-|--1-3---1-3---3-|----3-----3----
D-3-----3-----3---|1-----1-----1---|0-3---0-3---0--
A-----------------|----------------|--------------3
and then end with an A#5 (x133xx) quickly after the A



Chorus:
Clean or faintly distorted guitar, whichever you prefer.
A reverb pedal is used here in the song
e--3-1--3-1-----3-1----3-1--
B-1----1--------------------  (x2)
G--------------3------3-----

Post-Chorus:
This could also be called the anti-bridge because it appears after the
chorus instead of before it.  It is basically the same as the intro except
there is only one cycle of the riff in each measure (I'm not sure though, as
the guitar is hard to hear over the bass at this point).  And without ending
with A#5, the last measure looks like this:

Light distortion for the whole riff
G-----3---------
D-0-3---0-------
A-------------1-


Riff A:

This part is magic.  This riff can be manipulated in almost any way with
these notes and it will still sound harmonious with the song.

The line stops at the measure, then the second line begins at the second.
G-------1------3-|-------1--------
D----------------|---------------
A-0-2-3----2-3---|-0-2-3----2-3-2-


Riff B:
This is used at the semi-outro.  This part
is easier than it sounds on the CD.
The measures are only here to confuse.
e---------|---------|---------|---------------------
B-4-3-4-4-|-4-3-4-4-|-4-3-4-4-|---------------------
G---------|---------|---------|-----3-----3---------
D---------|---------|---------|-0-3---0-3---0-------
A---------|---------|---------|----------------3p1--


Riff C:
This is kind of a strange riff, it is not very accurate.  Go ahead and
improvise something that sounds better to you.

This is at the outro
Light distortion to act as a dampener

e-1h3-3-3-1h4-4-4-4-3- (4x), then raise it 5 frets:

e-6h8-8-8-6h9-9-9-9-8- (4x)



Listen to the song for a better idea of the rhythm, strumming, and etc.

    A#    and     F
  113331       133211
are repeated throughout the song, switching from A# to F and then F to
A# every other verse (listen to the song, when the tone changes, so do
the chords).

And that's it!

****************************
* Any questions, comments, *
* or concerns, please feel *
****************************
            
Submit corrections

comments powered by Disqus
↑ Back to top | Garbage Tabs for Special. Lyrics for acoustic guitar and electric guitar. Tablatures and chords are parodies/interpretations of the original songs. You may use it for private study, scholarship, research or language learning purposes only