» » »

Garbage, Special Tabs (ver.2)

Artists:  A B C D E F G H I J K L M N O P Q R S T U V W X Y Z # 

Special Tabs (ver.2)

Garbage Tabs
Rating:
0/5 (0 votes)
Special lessons Tabs too difficult? Try these video lessons and learn fast
                Tuning - Eb, all strings detuned a semi-tone.

INTRO

E -----------------------(---------------------------(    ----------------------------------------- (--------(
B -------0-----0--------(---------0------0---------(    -----------------------------------------(---------(
G -----2-----2-----2---(------2------2-------2---(    ----------4-------------6p4---4--------(----4---(
D ---4-----4-----4-----(---2-------2------2------(     ------4-------------4-------------------(-----4---(
A -----------------------(---------------------------(     ---6-----------6------------------------(-----2--(
E------------------------(---------------------------(    ------------------------------------------(--------(


VERSE 1

E////  E////  C#m////  C#m////   x2 

BRIDGE

F#m////  F#m////  B////  B////  x2

VERSE 2

E////  E//// C#m////  C#m////  x2

BRIDGE 2

F#m////  F#m////  B//// B////  x2

CHORUS 1

     A				A
E --------------4-----------2---(---------------4--------2----(
B -----------2------------------(-------------2----------------(
G ----2-------------------------(------2-----------------------(

   B				B
E ----------------4--------2----(---------------4-----------2----(
B -------------4----------------(-------------4-------------------(         x2
G -----4------------------------(-------4-------------------------(	

     w/ intro riff.
F#5////  E5////  B/D#//  C#5//  B5////.

Repeat everything above. Then carry on to verse 3.


VERSE 3
2 bars rest  C#m////  C#m////  x2
CHORUS 3 w/ previous chorus riff
F#m////  F#m////  B////  B////  x2

VERSE 4

8 bars rest w/ fill underneath

E--------------------------------(--------------------0----------(
B----------------------------0--(--------7--------------3-------(
G--------------------3----------(-------------3------------6----(
D---------------6-------6------(---------------------------------(

BRIDGE 4

F#m////  F#m////  B////  B////  x2

CHORUS 4 w/ previous chorus riff

A////  A////  B////  B////  x2
A////  A////  C#m////  C#m////  F#m//// 
E////  B/D#//C#5//  B////  A////  A////

A////  A////  C#m////  C#m////  repeat till end

I have worked out most of the jangly lead bits at the end, so contact me if you really want to know them, but it would be too time consuming to do them now.
            

comments powered by Disqus
↑ Back to top | Garbage Tabs for Special. Lyrics for acoustic guitar and electric guitar. Tablatures and chords are parodies/interpretations of the original songs. You may use it for private study, scholarship, research or language learning purposes only