» » »

Garbage, Bleed Like Me Bass tabs (ver.1)

Artists:  A B C D E F G H I J K L M N O P Q R S T U V W X Y Z # 

Bleed Like Me Bass tabs (ver.1)

Garbage Tabs
 Rating:
4/5 (4 votes)
Bleed Like Me lessons Tabs too difficult? Try these video lessons and learn fast
                
VERSE 1 (REST)

INTRO CHORUS
G|-------------------------------- |
D|-------------------------------- |
A|----------------2-------4------- |
E|-------------------------------- |

VERSE 2
|------------------------ |
|6-------6-------6------- |
|----4-------4-------4--- |
|------------------------ |

CHORUS
|-------------------------------- |
|-------------------------------- |
|2-------4-------2-------4------- |
|-------------------------------- |

BRIDGE 1
|-------------------------------- |
|66666666--------66666666-------- |
|--------44444444--------44444444 |
|-------------------------------- |

VERSE 3
|------------------------ |
|6-------6-------6------- |
|----4-------4-------4--- |
|------------------------ |

CHORUS

VERSE 4
|------------------------ |
|6-------6-------6------- |
|----4-------4----------- |
|------------------------ |

CHORUS

BRIDGE 2
|------------------------------------------------------------------ |
|66666666--------66666666--------66666666-------------------------- |
|--------44444444--------44444444--------444444442222222244444444-- |
|------------------------------------------------------------------ |

REST 2 BARS + VERSE 5

CHORUS X2 (Optional for bass)

BRIDGE 2
            
Submit corrections

comments powered by Disqus
↑ Back to top | Garbage Bass for Bleed Like Me. Lyrics for acoustic guitar and electric guitar. Tablatures and chords are parodies/interpretations of the original songs. You may use it for private study, scholarship, research or language learning purposes only