>
 >
Special 2

Special 2 Guitar Tabs

Garbage - Special 2 chords, tabs, tablatures, lyrics

Guitar lessons | Add/correct | Request | Top 50 tabs Artists:  A B C D E F G H I J K L M N O P Q R S T U V W X Y Z 0-9

Special 2 Guitar Tabs – Garbage

CD, Sheet music, Poster

Do you like Special 2? Share with your friends now
Bass TabsChordsChords v2TabsTabs v2Tabs v3Tabs v4Ukulele
Special-Garbage


Tuning: Flat. Down 1/2 step (D#G#C#F#A#d#)

I feel very satisfyed with this tab. I figured out the parts and put them in order of
the song. I did not do any of the counting nor did I tell when to repeat any parts (well
maybe a little bit :) Play along with the song to put the parts together to form the
whole song.

part 1.
1)--------------------------------------------------|
2)-----0-----0---0-----0-----0---0------0-----0-0-0-|
3)---2-----2---------2-----2----------2-----2---6-4-|
4)-4-----4-----4---2-----2-----2----1-----1-----6-4-|
5)----------------------------------------------4-2-|
6)--------------------------------------------------|

part 2.
1)--------------------------------------------------|
2)--------------------------------------------------|
3)-99xx9-99xx9-66xx6-66xx6-------------44xx4-44xx4--|
4)-99xx9-99xx9-66xx6-66xx6-44xx4-44xx4-44xx4-44xx4--|
5)-77xx7077xx7044xx4044xx4-44xx4-44xx4-22xx2022xx2--|
6)------------------------022xx2022xx20-----------0-|
I'm living with out you...I have run you down...


                                      Do you have an opinion...
part 3.
1)-----0-4-4-2-----0-4-4-2-----2-4-4-2-----2-4-4-2-|
2)---0-----------0-----------2-----------2---------|
3)-2-----------2-----------4-----------4-----------|
4)-------------------------------------------------|
5)-------------------------------------------------|
6)-------------------------------------------------|
                         A mind of your own....
  I thought you were special...
                         but I've run out of patience...

(play part 1. again, then part 2. pause when 997 is usually played)

I used to abuse you...
(then play...)
1)-------2-------|
2)-----0-----0---|
3)-1-3-----3---3-|
4)---------------|
5)---------------|
6)---------------|

but I've run out of patience...
(then play...)
1)-0---2p0-2-0-|
2)---4---------|
3)-------------|
4)-------------|
5)-------------|
6)-------------|

(ending...)
You were the talk of the town..
(then play...)
1)-2-4-0-2-2-0-5-4-5-5-4-|
2)-----------------------|
3)-----------------------|
4)-----------------------|
5)-----------------------|
6)-----------------------|

I thought you were special...
1)-7h9-9-9-7-7-11p9-11-11-9-|
2)--------------------------|
3)--------------------------|
4)--------------------------|
5)--------------------------|
6)--------------------------|

bass lines are very important in this song cause they are clearly hearable and hold alot 
the melody in this song.

Have a nice day.





Comments


Popular Garbage tabs & chords
I Think I'm Paranoid Bass Tabs
Only Happy When It Rains Bass Tabs
Breaking Up The Girl Chords
Drive You Home 1 Chords
Vow Chords
You Look So Fine Chords
Its All Over But Tabs
Queer 1 Tabs
So Like A Rose Tabs
Untouchable 1 Tabs


Song lyrics



↑ Back to top | Tablatures and chords are parodies/interpretations of the original songs. You may use it for private study, scholarship, research or language learning purposes only
© 2014 AZChords.com Contact us | Privacy policy | DMCA | Add/correct tabs | Request tabs | Top 50 tabs