» » »

Special Chords (ver.2)

Artists:  A B C D E F G H I J K L M N O P Q R S T U V W X Y Z # 

Special Chords (ver.2)

Garbage
Rating:
0/5 (0 votes)

Hard to play? Try these video lessons and learn fast.
                Band: Garbage
Song Title: Special
Tuning: Tuned Down 1/2 Step Eb Ab Db Gb Bb Eb

Complete rewrtie of this song on 11.14.10 added in guitar II octave parts and a 
few other odds and ends to the song. 
I have broken the chords down to Chords Guitar I & Chords Guitar II. You can play 
chords or octaves or both.

Chords Used For This Song:
Guitar I Chords:

      E  C#m F#m  B   A  B5  A5  F#5  E5  C#5 B/D#
Eb|---7---4---2---2--------------------------------|
Bb|---9---5---2---4---2------------------------4---|
Gb|---9---6---2---4---2---4---2---11---9---6---4---|
Db|---9---6---4---4---2---4---2---11---9---6---4---|
Ab|---7---4---4---2-------2-------9----7---4---6---|
Eb|-----------2------------------------------------|

Guitar II Chords:

      B  C#m  E  F#m
Eb|--------------------|
Bb|--------------------|
Gb|---4---6---9---11---|
Db|---X---X---X---X----|
Ab|---2---4---7---9----|
Eb|--------------------|


Guitar I: Intro Riff

Eb|---------------------|-------------------|---------------------|-------|
Bb|-------0------0------|-----0------0------|---------------------|-------|
Gb|-----2------2------2-|---2------2------2-|-----4-----4---6-p-4-|---4---|
Db|---4------4------4---|-2------2------2---|---4-----4-----------|---4---|
Ab|---------------------|-------------------|-6-----6-------------|---2---|
Eb|---------------------|-------------------|---------------------|-------|

Verse I:
Guitar I: Plays Chords
Guitar II: Plays Octaves

[E]I'm living without [C#m]you 
[E]I know all about [C#m]you 
[F#m]I have run you down into the ground [B]
[F#m]Spread disease about you over town [B]

Verse II:
Guitar I: Plays Chords
Guitar II: Plays Octaves

[E]I used to adore [C#m]you 
[E]I couldn't control [C#m]you 
[F#m]There was nothing that I wouldn't do [B]
[F#m]To keep myself around and close to you [B]


Chorus I:
Guitar I: Plays Chords
Guitar II: Plays Fill Riff A

Fill Riff A
Let the notes in this riff ring through out. 
Eb|-------4--2-|-----4--2-|-----4--2---|-----4--2---|
Bb|-----2------|---2------|---4--------|---4--------|
Gb|---2--------|-2--------|-4----------|-4----------|
Db|------------|----------|------------|------------|
Ab|------------|----------|------------|------------|
Eb|------------|----------|------------|------------|

Do you have an opinion? [A]
A mind of your own? [B]
I thought you were special [A]
I thought you should know [B]
But I've run out of [F#5]patience [E]
I couldn't care less [B/D#] [C#5] [B5]


Fill Riff B:
For the AHH AHH AHH  part you can play this riff B

Fill Riff B
Eb|--------------------------------|
Bb|---7---10---9---7---5---7---9---|
Gb|--------------------------------|
Db|--------------------------------|
Ab|--------------------------------|
Eb|--------------------------------| 


Ahhh.... Ahhh.... [Fill Riff B]
Ahhh.... Ahhh.... [Fill Riff B]

Chorus II:
Guitar I: Plays Chords
Guitar II: Plays Fill Riff A

Do you have an opinion? [A]
A mind of your own? [B]
I thought you were special [A]
I thought you should know [B]

Bridge:
Guitar I: Plays Chords
Guitar II: Plays Fill Riff C

Guitar Fill C:
Eb|-------------------|
Bb|--------0------0---|
Gb|----------11-------|
Db|------8------8-----|
Ab|---11--------------|
Eb|-------------------|

Ahhh.... Ahhh....
I used to amuse you [Guitar Fill C]

Ahhh.... Ahhh....
I knew that I'd lose you [Guitar Fill C]

[F#5]Now you're here and begging for a [B5]chance 
[F#5]But there's no way in hell I'd take you [B5]back 


Chorus III:
Guitar I: Plays Chords
Guitar II: Plays Fill Riff A

Do you have an opinion? [A]
A mind of your own? [B]
I thought you were special [A]
I thought you should know [B]
But I've run out of patience [A]
I've run out of comments [C#m]
I'm tired of the [F#5]violence [E]
I couldn't care less [B/D#] [C#5] [B5]

Outro:
Guitar I: Plays Chords
Guitar II: Plays Fill Riff D

Guitar 
Fill Riff D
Eb|-------------------|
Bb|---5---4---7---5---|
Gb|-------------------|
Db|-------------------|
Ab|-------------------|
Eb|-------------------|

I'm looking for a new [A]
Ahhh.... Ahhh.... [Fill Riff D]

I'm looking for a new [C#m]
Ahhh.... Ahhh.... [Fill Riff D]

I'm looking for a new [A]
Ahhh.... Ahhh.... [Fill Riff D]

I'm looking for a new [C#m]
Ahhh.... Ahhh.... [Fill Riff D]


We were the talk of the town [A]
Ahhh.... Ahhh.... [Fill Riff D]

We were the talk of the town [C#m]
Ahhh.... Ahhh.... [Fill Riff D]

We were the talk of the town [A]
Ahhh.... Ahhh.... [Fill Riff D]

We were the talk of the town [C#m]
Ahhh.... Ahhh.... [Fill Riff D]


I thought you were special[A]
Ahhh.... Ahhh.... [Fill Riff D]

I thought you were special[C#m]
Ahhh.... Ahhh.... [Fill Riff D]

I thought you were special[A]
Ahhh.... Ahhh.... [Fill Riff D]

I thought you were special[C#m]
Ahhh.... Ahhh.... [Fill Riff D]
            
Hard to play? Try these video lessons and learn fast. | Correct




comments powered by Disqus
↑ Back to top | Tablatures and chords are parodies/interpretations of the original songs. You may use it for private study, scholarship, research or language learning purposes only