>
 >
Beautiful Bride 1

Beautiful Bride 1 Guitar Tabs

Flyleaf - Beautiful Bride 1 chords, tabs, tablatures, lyrics

Guitar lessons | Add/correct | Request | Top 50 tabs Artists:  A B C D E F G H I J K L M N O P Q R S T U V W X Y Z 0-9

Beautiful Bride 1 Guitar Tabs – Flyleaf

CD, Sheet music, Poster

Do you like Beautiful Bride 1? Share with your friends now
Bass TabsBass Tabs v2ChordsTabsTabs v2Ukulele
Beautiful Bride - Flyleaf

Fucking awesome song!! XD
  Flyleaf is the shit!!

 I realise it isn't 100%. I just did i quickly so people would have a rough idea. Enjoy!

  Intro
e|------------------------------------------------------------------------------------|
B|------------------------------------------------------------------------------------|
G|-5--------------------5---------------5---------------------------2-----------------|
D|-5--3--0-0-0-0--0-0-0-5--3--0-0-0-00--5--3--0-0-0-0--0-0-0--3--0--2-----------------|
A|-3--3--0-0-0-0--0-0-0-3--3--0-0-0-00--3--3--0-0-0-0--0-0-0--3--0--0-----------------|
D|----3--0-0-0-0--0-0-0----3--0-0-0-00-----3--0-0-0-0--0-0-0--3--0--------------------|
         . . .    . . .                       . . .    . . .

  Verse
e|------------------------------------------------------------------------------------|
B|------------------------------------------------------------------------------------|
G|----------------------------------------------------------------5-------------------|
D|*-----------3---*-----------------------3-2--*-----------3---*--5-3-----------------|
A|--5p3p0---0---5---Repeat x3-------0-3-5--------5p3p0---0---5----3-3-----------------|
D|*-------3-0-----*-----------0-3-5------------*-------3-0-----*----3-----------------|
                              . . . . . .

  Chorus
e|------------------------------------------------------------------------------------|
B|------------------------------------------------------------------------------------|
G|----------------5---------------5---------------------------2-2-2-2-5---------------|
D|-0-0-0-0--0-0-0-5--3--0-0-0-00--5--3--0-0-0-0--0-0-0--3--0--2-2-2-2-5-3-------------|
A|-0-0-0-0--0-0-0-3--3--0-0-0-00--3--3--0-0-0-0--0-0-0--3--0--0-0-0-0-3-3-------------|
D|-0-0-0-0--0-0-0----3--0-0-0-00-----3--0-0-0-0--0-0-0--3--0------------3-------------|
   . . .    . . .                       . . .    . . .

e|------------------------------------------------------------------------------------|
B|------------------------------------------------------------------------------------|
G|----------------5---------------5---------------------------2-----------------------|
D|-0-0-0-0--0-0-0-5--3--0-0-0-00--5--3--0-0-0-0--0-0-0--3--0--2-----------------------|
A|-0-0-0-0--0-0-0-3--3--0-0-0-00--3--3--0-0-0-0--0-0-0--3--0--0-----------------------|
E|-0-0-0-0--0-0-0----3--0-0-0-00-----3--0-0-0-0--0-0-0--3--0--------------------------|
   . . .    . . .                       . . .    . . .

  Verse
e|------------------------------------------------------------------------------------|
B|------------------------------------------------------------------------------------|
G|-----------------------------------------------------------5------------------------|
D|*-----------3---*-----------------------3-2----------------5-3----------------------|
A|--5p3p0---0---5---Repeat x3-------0-3-5-----Repeat All x2--3-3----------------------|
D|*-------3-0-----*-----------0-3-5----------------------------3----------------------|
                              . . . . . .

  Chorus
e|------------------------------------------------------------------------------------|
B|------------------------------------------------------------------------------------|
G|----------------5---------------5---------------------------2-2-2-2-5---------------|
D|-0-0-0-0--0-0-0-5--3--0-0-0-00--5--3--0-0-0-0--0-0-0--3--0--2-2-2-2-5-3-------------|
A|-0-0-0-0--0-0-0-3--3--0-0-0-00--3--3--0-0-0-0--0-0-0--3--0--0-0-0-0-3-3-------------|
D|-0-0-0-0--0-0-0----3--0-0-0-00-----3--0-0-0-0--0-0-0--3--0------------3-------------|
   . . .    . . .                       . . .    . . .

e|------------------------------------------------------------------------------------|
B|------------------------------------------------------------------------------------|
G|----------------5---------------5---------------------------2-2-2-2-5---------------|
D|-0-0-0-0--0-0-0-5--3--0-0-0-00--5--3--0-0-0-0--0-0-0--3--0--2-2-2-2-5-3-------------|
A|-0-0-0-0--0-0-0-3--3--0-0-0-00--3--3--0-0-0-0--0-0-0--3--0--0-0-0-0-3-3-------------|
D|-0-0-0-0--0-0-0----3--0-0-0-00-----3--0-0-0-0--0-0-0--3--0------------3-------------|
   . . .    . . .                       . . .    . . .

  Bridge
e|------------------------------------------------------------------------------------|
B|------------------------------------------------------------------------------------|
G|------------------------------------------------------------------------------------|
D|-x-x-xx--x-xxxx---------------------------------------------------------------------|
A|-x-x-xx--x-xxxx---------------------------------------------------------------------|
D|-x-x-xx--x-xxxx---------------------------------------------------------------------| X4

 (Clean)
e|--10-----10-----10---8-----8-----8---8-----8-----8---8-----8-----8------------------|
B|-----8------8------8---6-----6-----6---6-----6-----6-----6-----6--------------------|
G|-------7------7----------9-----9---------9-----9-------9-----9-----7----------------|
D|------------------------------------------------------------------------------------|
A|------------------------------------------------------------------------------------|
D|------------------------------------------------------------------------------------| X4

  Chorus
e|------------------------------------------------------------------------------------|
B|------------------------------------------------------------------------------------|
G|----------------5---------------5---------------------------2-2-2-2-5---------------|
D|-0-0-0-0--0-0-0-5--3--0-0-0-00--5--3--0-0-0-0--0-0-0--3--0--2-2-2-2-5-3-------------|
A|-0-0-0-0--0-0-0-3--3--0-0-0-00--3--3--0-0-0-0--0-0-0--3--0--0-0-0-0-3-3-------------|
D|-0-0-0-0--0-0-0----3--0-0-0-00-----3--0-0-0-0--0-0-0--3--0------------3-------------|
   . . .    . . .                       . . .    . . .

e|------------------------------------------------------------------------------------|
B|------------------------------------------------------------------------------------|
G|----------------5---------------5---------------------------2-2-2-2-5---------------|
D|-0-0-0-0--0-0-0-5--3--0-0-0-00--5--3--0-0-0-0--0-0-0--3--0--2-2-2-2-5-3-------------|
A|-0-0-0-0--0-0-0-3--3--0-0-0-00--3--3--0-0-0-0--0-0-0--3--0--0-0-0-0-3-3-------------|
D|-0-0-0-0--0-0-0----3--0-0-0-00-----3--0-0-0-0--0-0-0--3--0------------3-------------|
   . . .    . . .                       . . .    . . .

  Bridge
e|------------------------------------------------------------------------------------|
B|------------------------------------------------------------------------------------|
G|----------------5---------------5---------------------------2-2-2-2-5---------------|
D|-0-0-0-0--0-0-0-5--3--0-0-0-00--5--3--0-0-0-0--0-0-0--3--0--2-2-2-2-5-3-------------|
A|-0-0-0-0--0-0-0-3--3--0-0-0-00--3--3--0-0-0-0--0-0-0--3--0--0-0-0-0-3-3-------------|
D|-0-0-0-0--0-0-0----3--0-0-0-00-----3--0-0-0-0--0-0-0--3--0------------3-------------|

e|------------------------------------------------------------------------------------|
B|------------------------------------------------------------------------------------|
G|----------------5---------------5---------------------------2-2-2-2-5---------------|
D|-0-0-0-0--0-0-0-5--3--0-0-0-00--5--3--0-0-0-0--0-0-0--3--0--2-2-2-2-5-3-------------|
A|-0-0-0-0--0-0-0-3--3--0-0-0-00--3--3--0-0-0-0--0-0-0--3--0--0-0-0-0-3-3-------------|
D|-0-0-0-0--0-0-0----3--0-0-0-00-----3--0-0-0-0--0-0-0--3--0------------3-------------|
   . . .    . . .                       . . .    . . .

 Guitar 1
e|------------------------------------------------------------------------------------|
B|------------------------------------------------------------------------------------|
G|------------------------------------------------------------------------------------|
D|-x-x-------x-x------x-x------x-x----------------------------------------------------|
A|-x-x-------x-x------x-x------x-x----------------------------------------------------|
D|-x-x--15\--x-x-15\--x-x-15\--x-x--15\-----------------------------------------------|

     Repeat x2

 Guitar 2
e|-----11--------14-------15--------17------------------------------------------------|
B|-----14b-------17b------18b-------20b-----------------------------------------------|
G|------------------------------------------------------------------------------------|
D|-x-x-------x-x------x-x------x-x----------------------------------------------------|
A|-x-x-------x-x------x-x------x-x----------------------------------------------------|
D|-x-x-------x-x------x-x------x-x----------------------------------------------------|





Comments


Popular Flyleaf tabs & chords
Much Like Falling Bass Tabs
Red Sam Chords
There For You 2 Chords
Arise Tabs
Fully Alive 8 Tabs
Perfect 1 Tabs
Red Sam 2 Tabs
Break Your Knees Ukulele
Set Apart This Dream Ukulele
You Are My Joy From The Inside Out Ukulele


Song lyrics



↑ Back to top | Tablatures and chords are parodies/interpretations of the original songs. You may use it for private study, scholarship, research or language learning purposes only
© 2014 AZChords.com Contact us | Privacy policy | DMCA | Add/correct tabs | Request tabs | Top 50 tabs