» » »

Flyleaf, Beautiful Bride Bass tabs (ver.2)

Artists:  A B C D E F G H I J K L M N O P Q R S T U V W X Y Z # 

Beautiful Bride Bass tabs (ver.2)

Flyleaf Tabs
 Rating:
4/5 (4 votes)
Beautiful Bride lessons Tabs too difficult? Try these video lessons and learn fast
1
                -----------------------------------------------------------------------------
Beautiful Bride - Flyleaf
-----------------------------------------------------------------------------

Tuning: Drop D

Intro
G|--------|------------------------------------------------|
D|--------|------------------------------------------------|
A|--------|-----------------------------------------4-5-0--|
D|--10/3--|--0000-000--10/3-0-0-0-0--10/3-0000-000---------|

Verse 1
G|------------------------------------------------|   |-------|
D|------------------------------------------------|   |-------|
A|-5--------5--5--------5--5--------5----0-3------|   |-5-----|
D|--703-0-3-----703-0-3-----703-0-3----3-----3-2--|   |--703--|
                                                       is the "flurry" thing
G|---------------------------------------------|
D|---------------------------------------------|
A|-5--------5--5--------5--5--------5----------|
D|--703-0-3-----703-0-3-----703-0-3------10/3--|

Chorus                                               1st time
G|--------------------------------------------------|--------|
D|--------------------------------------------------|--------|
A|-------------------------------------------4-5-0--|--------|
D|--0000-000--10/3--0-0-0-0--10/3--0000-000---------|--10/3--|x2

Verse 2                                            2nd time
G|------------------------------------------------|--------|
D|------------------------------------------------|--------|
A|-5--------5--5--------5--5--------5----0-3------|--------|
D|--703-0-3-----703-0-3-----703-0-3----3-----3-2--|--10/3--|x2

Chorus
G|-----------------------------------------------------------|
D|-----------------------------------------------------------|
A|-------------------------------------------4-5-0-----------|
D|--0000-000--10/3--0-0-0-0--10/3--0000-000------------10/3--|x2

Verse 3
G|----------|
D|----------|
A|----------|
D|--0-0-00--|x8

G|------------------------------------------------------|
D|--12--------------------7------------10---------------|
A|-----10-8----------5--8---10---10-12----12-10-9-8-----|
D|----------7h8h10----------------------------------10--|

G|--------------------------------------------------------------|
D|----------------------10------------10------------------------|
A|--55555555-1010101010----12-10--8888--888---------------------|
D|-------------------------------------------10101010-10-10-0~--|

Chorus
G|-----------------------------------------------------------|
D|-----------------------------------------------------------|
A|-------------------------------------------4-5-0-----------|
D|--0000-000--10/3--0-0-0-0--10/3--0000-000------------10/3--|x2

G|------------------------------------------------|
D|------------------------------------------------|
A|-----------------------------------4-5-0--------|
D|--0--0--10/3--0-0-0-0--10/3--0--0---------10/3--|

G|-----------------------------------------------------------|
D|-----------------------------------------------------------|
A|-------------------------------------------4-5-0-----------|
D|--0000-000--10/3--0-0-0-0--10/3--0000-000------------10/3--|

Outro
G|--------------------------------------------|
D|--------------------------------------------|
A|--------------------------------------------|
D|--00--3/5\--00--5/7\--00--7/10\--00--7/12\--|

G|--------------------------------------------|
D|--------------------------------------------|
A|--------------------------------------------|
D|--00--3/5\--00--5/7\--00--7/10\--00--12-12--|


| /  slide up
| \  slide down
| h  hammer-on
| p  pull-off
| ~  vibrato
| +  harmonic
| x  Mute note
=============================================================================
            
Submit corrections

comments powered by Disqus
↑ Back to top | Flyleaf Bass for Beautiful Bride. Lyrics for acoustic guitar and electric guitar. 1 Tablatures and chords are parodies/interpretations of the original songs. You may use it for private study, scholarship, research or language learning purposes only