» » »

Beautiful Bride Bass tabs (ver.1)

Artists:  A B C D E F G H I J K L M N O P Q R S T U V W X Y Z # 

Beautiful Bride Bass tabs (ver.1)

Flyleaf
Rating:
0/5 (0 votes)

Hard to play? Try these video lessons and learn fast.
                
Alright! Already on my third bass tab! Please rate and comment! Thought I would also add 
where the lyrics are to make it easier to follow! Have fun!

Tuning: Drop D

Intro
G|------------------------------------------------------|
D|------------------------------------------------------|
A|------------------------------------------------------|
D|-10\3--0000-000--10\3-00000----10\3-0000-000--10-12-7-|

Verse
G|--------------|
D|--------------| x3
A|--------3-5~--|
D|-532-0--------|
 (Unified Diversity...)

Then
G|--------------|
D|--------------| x1
A|-------3-8-7~-|
D|-532----------|
 (No One Independent...)

Again
G|--------------|
D|--------------| x3
A|--------3-5~--|
D|-532-0--------|
 (Irreplaceable, Indispensable...)

Chorus
G|------------------------------------------------------------|
D|------------------------------------------------------------|
A|------------------------------------------------------------|
D|-10\3--0000-000--10\3-0000----10\3-0000-000--10-12-7-77777--|
 (Beautiful Bride...)

G|------------------------------------------------------|
D|------------------------------------------------------|
A|------------------------------------------------------|
D|-10\3--0000-000--10\3-0000----10\3-0000-000--10-12-7--|
 (Fighting Ends In Forgiveness...)

Verse 2
G|--------------|
D|--------------| x3
A|--------3-5~--|
D|-532-0--------|
 (Strengthen Your Arms Now...)

Then
G|--------------|
D|--------------| x1
A|-------3-8-7~-|
D|-532----------|
 (Train Your Fingers...)

Repeat Both Rhythms
G|--------------|
D|--------------| x3
A|--------3-5~--|
D|-532-0--------|
 (Fighting is Violence...)

G|--------------|
D|--------------| x1
A|-------3-8-7~-|
D|-532----------|
 (Now Screams of Joy...)

Chorus
G|------------------------------------------------------------|          |------------|
D|------------------------------------------------------------|  x2   |---------------|
A|------------------------------------------------------------|          |------------|
D|-10\3--0000-000--10\3-0000----10\3-0000-000--10-12-777777---|           |----10\3---|
 (Beautiful Bride...)


Chorus before the Bridge
G|-----------------------------------------------------------------|
D|-----------------------------------------------------------------|
A|-----------------------------------------------------------------|
D|-x-x-xx--x-x-xx--x-x-xx--x-x-xx--x-x-xx--x-x-xx--x-x-xx--x-x-xx--|
 (Beautiful Bride...)

Bridge
G|---------------|--------------------------------|
D|-----12~~------|--------------------------------|
A|----------10~~-|----5~------00-3-3-3-3~~--------|
D|---------------|--------------------------------|

G|-----------------------------------|--------------------------|
D|-----12~~--------------------------|--------------------------|
A|-------------10------12.12.11.10-----|------5-------0-3~~-----|
D|-----------------------------------|--------------------------|
 (If One Part's Hurt...)

G|---------------------------------------|
D|-0-0-0-0-0-0-0-------------------------|
A|---------------10-10-10-10-10-13-12-10-|
D|---------------------------------------|
 (Rejoice, and we'll sing with you...)

G|-----------(7)-----|-----------(5)-----|-------|
D|------------------|------------------|---------|
A|-5-5-5-5-5-(5)-5-5-|-3-3-3-3-3-(3)-3-3-|-------|
D|------------------|------------------|-0~~-----|
 (Hallelujah)   [You can use either the note on the fourth string or second. Play last 
note softly and let it ring]

Chorus
G|---------------------------------------------------------|
D|---------------------------------------------------------|
A|---------------------------------------------------------|
D|--00-000-000--10\3-0000---10\3-0000-000--10-12-7-777777--|
 (Beautiful Bride...)

G|-----------------------------------------------------------------|
D|-----------------------------------------------------------------|
A|-----------------------------------------------------------------|
D|-10\3--0000-000--10\3-0000--10\3-0000-000--10-12-7-777777--10\3--|
 (Fighting Ends In Forgiveness...)

Chorus
G|----------------------------------------------------------|
D|----------------------------------------------------------|
A|----------------------------------------------------------|
D|--0000-000-10\3-0-0-0-0-10\3-0000-000--10-12--7777--10\3--|
 (Beautiful Bride...)

G|----------------------------------------------------------|
D|----------------------------------------------------------|
A|----------------------------------------------------------|
D|--000x000x-10\3-0000-10\3-0000-000--10-12-7-777777--10\3--|
 (Fighting Ends in Forgiveness...)

Outro
G|------------------------------------|----------------------------------------|
D|------------------------------------|----------------------------------------|
A|------------------------------------|----------------------------------------|
D|-00--3/5--00--3/7--00--3/9--00--12--|-00--3/5--00--3/7--00--3/9--00--12.12---|
[You can play this last part with or without the slides. I just find it sounds more like 
the song with the slides]
            
Hard to play? Try these video lessons and learn fast. | Correct




comments powered by Disqus
↑ Back to top | Tablatures and chords are parodies/interpretations of the original songs. You may use it for private study, scholarship, research or language learning purposes only