» » »

Flyleaf, Cassie Tabs (ver.1)

Artists:  A B C D E F G H I J K L M N O P Q R S T U V W X Y Z # 

Cassie Tabs (ver.1)

Flyleaf Tabs
Rating:
0/5 (0 votes)
Cassie lessons Tabs too difficult? Try these video lessons and learn fast
                Tuning: Drop D....or standard if you wish i just find it easier and that it sounds better in drop D

listen to the song for how many times each it played

intro:
e|---------------------------------------------------------------------------|
B|---------------------------------------------------------------------------|
G|---------------------------------------------------------------------------|
D|-777-8-7-5-7-5-7-7/8\7-----------------------------------------------------|
A|-777-8-7-5-7-5-7-7/8\7-----------------------------------------------------|
D|-777-8-7-5-7-5-7-7/8\7-----------------------------------------------------|

verse:
e|--------------------------------------------------------------------------|
B|--------------------------------------------------------------------------|
G|--------------------------------------------------------------------------|
D|--------------------------------------------------------------------------|
A|--------------------------------------------------------------------------|
D|-777-8-7-5-7-5-7-7h8p7----------------------------------------------------|
   ... . . . . . . .

chorus:
e|--------------------------------------------------------------------------|
B|--------------------------------------------------------------------------|
G|--------------------------------------------------------------------------|
D|-77777777-1010101010101010-55555555-22222222------------------------------|
A|-77777777-1010101010101010-55555555-22222222------------------------------|
D|-77777777-1010101010101010-55555555-22222222------------------------------|

the bridge is the same as the chorus with a bit of a solo like part that is one or two
notes and that's it there's the whole song and it's right
it's fun to play to as well so enjoy everyone

| /  slide up
| \  slide down
| h  hammer-on
| p  pull-off
| ~  vibrato
| +  harmonic
| .  Plam note
            
Submit corrections

comments powered by Disqus
↑ Back to top | Flyleaf Tabs for Cassie. Lyrics for acoustic guitar and electric guitar. Tablatures and chords are parodies/interpretations of the original songs. You may use it for private study, scholarship, research or language learning purposes only