>
 >
Beautiful Bride

Beautiful Bride Guitar Tabs

Flyleaf - Beautiful Bride chords, tabs, tablatures, lyrics

Guitar lessons | Add/correct | Request | Top 50 tabs Artists:  A B C D E F G H I J K L M N O P Q R S T U V W X Y Z 0-9

Beautiful Bride Guitar Tabs – Flyleaf

CD, Sheet music, Poster

Do you like Beautiful Bride? Share with your friends now
Bass TabsBass Tabs v2ChordsTabsTabs v2Ukulele
Flyleaf
"Beautiful Bride"
Memento Mori/Single
Drop D (E-B-G-D-A-D)


OK, for the verses, i have found two ways to play it, that's why i have put
"OR" in that section... they sound exactly the same, one may be easier and
one may be harder, it's which ever one you guys think is best for you.

For the Bridge, i could not hear the guitars in the back, so i did it along
with the singer's voice, i got as close as i could to her voice,
i believe it will do. 
Lyrics are at the bottom if you want them.

*each open note in the Chorus and Outro is slightly muted.

*the guitars are distorted in the song

OH, and for the people that like to find every thing wrong 
with people's tabs: if there is something wrong with it, 
correct it, or let me know and i can fix it!
Don't be an a** and leave 
"Rude A**" comments about it!!
THX!!! :):):)

if any Q's please e-mail me!! 



Intro
E|------------------------------------------------------|
B|------------------------------------------------------|
G|------------------------------------------------------|
D|-10\3--0000-000--10\3-000-00--10\3-0000-000--10-12-7--|
A|-10\3--0000-000--10\3-000-00--10\3-0000-000--10-12-7--|
D|-10\3--0000-000--10\3-000-00--10\3-0000-000--10-12-7--|


Verse

e|----------------|            |----------------|
b|----------------|            |----------------|
g|----------------|            |----------------|
d|----------------| x3  OR     |-------------0--|   x3
A|----------3-5~--|            |-----------3----|
D|-0-3-00-5-------|            |--0-3-00-5------|
 (Unified Diversity...)


Then
e|----------------|            |----------------|
b|----------------|            |----------------|
g|----------------|            |----------------|
d|----------------|     OR     |---------0-3-2~-|
A|-------3-5-8-7~-|            |-------3--------|
D|-0-3-5----------|            |-0-3-5----------|
 (No One Independent...)


Again
e|----------------|            |----------------|
b|----------------|            |----------------|
g|----------------|            |----------------|
d|----------------| x3  OR     |-------------0--|   x3
A|----------3-5~--|            |-----------3----|
D|-0-3-00-5-------|            |--0-3-00-5------|
 (Irreplaceable, Indispensable...)


Chorus
E|-----------------------------------------------------------|
B|-----------------------------------------------------------|
G|-----------------------------------------------------------|  
D|-10\3--0000-000--10\3-000-00--10\3-0000-000--10-12-77-77xx-|
A|-10\3--0000-000--10\3-000-00--10\3-0000-000--10-12-77-77xx-|
D|-10\3--0000-000--10\3-000-00--10\3-0000-000--10-12-77-77xx-|
 (Beautiful Bride...)

E|------------------------------------------------------|
B|------------------------------------------------------|
G|------------------------------------------------------|
D|-10\3--0000-000--10\3-000-00--10\3-0000-000--10-12-7--|
A|-10\3--0000-000--10\3-000-00--10\3-0000-000--10-12-7--|
D|-10\3--0000-000--10\3-000-00--10\3-0000-000--10-12-7--|
 (Fighting Ends In Forgiveness...)

Verse
e|----------------|            |----------------|
b|----------------|            |----------------|
g|----------------|            |----------------|
d|----------------| x3  OR     |-------------0--|   x3
A|----------3-5~--|            |-----------3----|
D|-0-3-00-5-------|            |--0-3-00-5------|
 (Strengthen Your Arms Now...)

Then
e|----------------|            |----------------|
b|----------------|            |----------------|
g|----------------|            |----------------|
d|----------------|     OR     |---------0-3-2~-|
A|-------3-5-8-7~-|            |-------3--------|
D|-0-3-5----------|            |-0-3-5----------|
 (Train Your Fingers...)2nd time

Again
e|----------------|            |----------------|
b|----------------|            |----------------|
g|----------------|            |----------------|
d|----------------| x3  OR     |-------------0--|   x3
A|----------3-5~--|            |-----------3----|
D|-0-3-00-5-------|            |--0-3-00-5------|
 (Fighting is Violence...)

& Again
e|----------------|            |----------------|
b|----------------|            |----------------|
g|----------------|            |----------------|
d|----------------|     OR     |---------0-3-2~-|
A|-------3-5-8-7~-|            |-------3--------|
D|-0-3-5----------|            |-0-3-5----------|
 (Now Screams of Joy...)

Chorus
E|-----------------------------------------------------------|       |---------|     
B|-----------------------------------------------------------|       |---------|      
G|-----------------------------------------------------------|   x2  |---------|      
D|-10\3--0000-000--10\3-000-00--10\3-0000-000--10-12-77-77xx-|       |-xx-10\3-|
A|-10\3--0000-000--10\3-000-00--10\3-0000-000--10-12-77-77xx-|       |-xx-10\3-|
D|-10\3--0000-000--10\3-000-00--10\3-0000-000--10-12-77-77xx-|       |-xx-10\3-|
 (Beautiful Bride...)

Chorus before the Bridge
e|-----------------------------------|
b|-----------------------------------|
g|-----------------------------------|  x2
d|-xxx-xx-xx-xx-xxx-xx-xx-xx-xxx-xxx-|
A|-xxx-xx-xx-xx-xxx-xx-xx-xx-xxx-xxx-|
D|-xxx-xx-xx-xx-xxx-xx-xx-xx-xxx-xxx-|
 (Beautiful Bride...)

Bridge (Read At the Top For Explanation)
e|-----------------------------|-----------------------------|
b|-----------------------------|-----------------------------|
g|---------10h12-14-12---------|------------10h12-14-12------|
d|--10h12--------------12/15---|---10-10h12-------------12---|
A|-----------------------------|-----------------------------|
D|-----------------------------|-----------------------------|
 (We're Not Gonna Fall & Forget...)

e|-----------------------------|-----------------------------|
b|-----------------------------|-----------------------------|
g|-----------10h12-14-12-------|----------10h12-14-12--------|
d|-10-10h12--------------12/15-|-10-10h12-------------12\10--|
A|-----------------------------|-----------------------------|
D|-----------------------------|-----------------------------|
 (If One Part's Hurt...)

e|-----------------------|
b|-13/15--13-------------|
g|----------14-15-14-12~-|
d|-----------------------|
A|-----------------------|
D|-----------------------|
 (Rejoice, and we'll sing with you...)

e|--------------|--------------|--------------|--------------|
b|--------------|--------------|--------------|--------------|
g|-15-14-12~15~-|-15-17-14~15~-|-15-14-12~15~-|-15-14-12\10~-|
d|--------------|--------------|--------------|--------------|
A|--------------|--------------|--------------|--------------|
D|--------------|--------------|--------------|--------------|
 (Hallelujah)   each section is a different line or hallelujah. 


Chorus
e|---------------------------------------------------------------|
b|---------------------------------------------------------------|
g|---------------------------------------------------------------|
d|------00-000-000--10\3-000-00--10\3-0000-000--10-12-77-77------|
A|------00-000-000--10\3-000-00--10\3-0000-000--10-12-77-77------|
D|------00-000-000--10\3-000-00--10\3-0000-000--10-12-77-77------|
 (Beautiful Bride...)

E|---------------------------------------------------------------|
B|---------------------------------------------------------------|
G|---------------------------------------------------------------|
D|-10\3--0000-000--10\3-000-00--10\3-0000-000--10-12-7777--10\3--|
A|-10\3--0000-000--10\3-000-00--10\3-0000-000--10-12-7777--10\3--|
D|-10\3--0000-000--10\3-000-00--10\3-0000-000--10-12-7777--10\3--|
 (Fighting Ends In Forgiveness...)

Chorus
e|---------------------------------------------------------------|
b|---------------------------------------------------------------|
g|---------------------------------------------------------------|
d|---0000-00010\3-0-0-0-0-10\3-0000-000--10-12--77-77--10\3------|
A|---0000-00010\3-0-0-0-0-10\3-0000-000--10-12--77-77--10\3------|
D|---0000-00010\3-0-0-0-0-10\3-0000-000--10-12--77-77--10\3------|
 (Beautiful Bride...)
            Listen & Pay attention to the open strums here.

e|---------------------------------------------------------------|
b|---------------------------------------------------------------|
g|---------------------------------------------------------------|
d|----000x000x-10\3-0000-10\3-0000-000--10-12-7777--10\3---------|
A|----000x000x-10\3-0000-10\3-0000-000--10-12-7777--10\3---------|
D|----000x000x-10\3-0000-10\3-0000-000--10-12-7777--10\3---------|
 (Fighting Ends in Forgivness...)

Outro
e|-----------------------------|---------------------------------|
b|----15\----17\----19\----21\-|-----15\-----17\----19\-----21x--|
g|----15\----17\----19\----21\-|-----15\-----17\----19\-----21x--|
d|-----------------------------|---------------------------------|
A|-----------------------------|---------------------------------|
D|-00-----00-----00-----00-----|-000-----000----000-----000------|



/ = Slide Up
\ = Slide Down
h = Hammer On
~ = Bend 
x = Muted Note

:)= Happiness 



:)
There you guys go. Beautiful Bride.
I hope you guys enjoyed.
Please Comment or Rate!


*if you haven't read the top... Please do!

Thanks Again! :)




Lyrics

Unified Diversity
Functioning As One Body
Every Part
Encouraged By The Other
No One 
Independent Of Another
Irreplaceable
Indispensable 
Your Incredible
Incredible

Body Of Christ
One Flesh Abiding
Strong And Unifying
Fighting Ends In
Forgiveness
(Unite And Fight)
All Division

Strengthen Your
Arms Now (Now)
Train Your Fingers
For Battle
Urgency Is Here Now (Now)
Train Your Fingers 
For Battle
Fighting Is Violence
With Your Feet
Wrapped In Peace
Sad Tears 
And Silence
Now Screams Of Joy
Victory

Body Of Christ
One Flesh Abiding
Strong And Unifying
Fighting Ends In
Forgiveness
(Unite and Fight)
All Division

(Beautiful Bride)
(Body Of Christ)
(One Flesh Abiding)
Strong And Unifying

We're Not Gonna 
Fall And Forget
How Far You Went
To Pick Us Up
If One Part's Hurt
The Whole Body 
Is Sick
If One Part Mourns
We All Mourn
With Him
Rejoice, And
We'll Sing With You
Hallelujah
Hallelujah
(Hallelujah)
Hallelujah

Body Of Christ
One Flesh Abiding
Strong And Unifying
Fighting Ends In
Forgiveness
(Unite and Fight)
All Division

Body Of Christ
(One Flesh Abiding)
(Strong And Unifying)
Fighting Ends In
Forgiveness
Unite and Fight
All Division
:)





Comments


Popular Flyleaf tabs & chords
So I Thought 2 Bass Tabs
Heavy Prey Chords
Light In Your Eyes Chords
Sorrow 1 Chords
All Around Me Tabs
Cassie 7 Tabs
Ocean Waves Tabs
Red Sam Tabs
Cage On The Ground Ukulele
New Horizons Ukulele


Song lyrics



↑ Back to top | Tablatures and chords are parodies/interpretations of the original songs. You may use it for private study, scholarship, research or language learning purposes only
© 2014 AZChords.com Contact us | Privacy policy | DMCA | Add/correct tabs | Request tabs | Top 50 tabs