» » »

Same Thing Tabs (ver.2)

Artists:  A B C D E F G H I J K L M N O P Q R S T U V W X Y Z # 

Same Thing Tabs (ver.2)

Flobots
Rating:
0/5 (0 votes)

Hard to play? Try these video lessons and learn fast.
                Great song, great message. 
If only our politicians listened to the Flobots and lived by the
messages in their songs. Then the world would be a much better place.
Spread the word of the Flobots! ;)
      
Standard Tuning (EADGBe)

Intro     
     1 + 2 + 3 + 4 +
e---|----------------|--
B---|----------------|--
G---|--------5-------|--
D---|------5---53----|--
A---|--3-5-------53--|--
E--3|5--------------3|5-

     1 + 2 + 3 + 4 + |1 + 2 + 3 + 4 + |1 + 2 + 3 + 4 + |1 + 2 + 3 + 4 +  
e--|----------------|----------------|----------------|----------------|
B--|----------------|----------------|----------------|----------------|
G--|----------------|----------------|----------------|----------------|
D--|----------------|----------------|----------------|----------------|
A--|----------------|----------------|----------------|----------------|
E--|5---------------|5---------------|5--------------3|5---------------|

(optional viola part, usually plucked on a viola)
    1 + 2 + 3 + 4 + |1 + 2 + 3 + 4 + |1 + 2 + 3 + 4 + |1 + 2 + 3 + 4 +  
e--|----------------|----------------|----------------|----------------|
B--|----------------|----------------|----------------|----------------|
G--|----------------|----------------|----------------|----------------|
D--|----7-57-57-7-7-|----7-57-57-7-7-|----7-57-57-7-7-|----------------|
A--|----------------|----------------|----------------|----------------|
E--|5---------------|5---------------|5--------------3|5---------------|


Verse (don't start playing again until 0:33)
    1 + 2 + 3 + 4 + |1 + 2 + 3 + 4 + |1 + 2 + 3 + 4 + |1 + 2 + 3 + 4 +  
e--|----------------|----------------|----------------|----------------|
B--|----------------|----------------|----------------|----------------|
G--|----------------|----------------|----------------|----------------|
D--|----------------|----------------|----------------|----------------|
A--|----------------|----------------|----------------|----------------|
E--|5---------------|5---------------|5--------------3|5---------------|
"Yo joe, let it blow with convulsive force..."

    1 + 2 + 3 + 4 + |1 + 2 + 3 + 4 + |1 + 2 + 3 + 4 + |1 + 2 + 3 + 4 +  
e--|----------------|----------------|----------------|----------------|
B--|----------------|----------------|----------------|----------------|
G--|----------------|----------------|----------------|----------------|
D--|----------------|----------------|----------------|----------------|
A--|----------------|----------------|----------xx14/-|2-2-2-2-6-6-6-6-|
E--|5---------------|5---------------|5---------xx12/-|0-0-0-0-4-4-4-4-|
"Cause we've already lost the war they keep wagin..."

Chorus
    1 + 2 + 3 + 4 + |1 + 2 + 3 + 4 + |1 + 2 + 3 + 4 + |1 + 2 + 3 + 4 + |  
e--|----------------|----------------|----------------|----------------|
B--|----------------|----------------|----------------|----------------|
G--|----------------|----------------|----------------|--------5-------|
D--|----------------|----------------|----------------|------5---53----|
A--|7---------------|----------------|----------------|--3-5-------53--|
E--|5--------------3|5--------------3|5--------------3|5--------------3|
"Sayin' the same things over again..."

    1 + 2 + 3 + 4 + |1 + 2 + 3 + 4 + |1 + 2 + 3 + 4 + |1 + 2 + 3 + 4 +  
e--|----------------|----------------|----------------|----------------|
B--|----------------|----------------|----------------|----------------|
G--|----------------|----------------|----------------|----------------|
D--|----------------|----------------|----------------|----------------|
A--|----------------|----------------|----------xx14/-|2-------------2-|
E--|5--------------3|5--------------3|5---------xx12/-|0(hold)---------|
"Sayin' the same things over again..."


Verse 2
    1 + 2 + 3 + 4 + |1 2 3 4 |1 2 3 4 |1 2 3 4  
e--|----------------|--------|--------|--------|
B--|----------------|--------|--------|--------|
G--|----------------|--------|--------|--------|
D--|----------------|--------|--------|--------|
A--|----------------|--------|--------|--------|
E--|5---------------|--------|--------|--------|
"How many times can the line divide?..."

    1 + 2 + 3 + 4 + |1 + 2 + 3 + 4 + |1 + 2 + 3 + 4 + |1 + 2 + 3 + 4 +  
e--|----------------|----------------|----------------|----------------|
B--|----------------|----------------|----------------|----------------|
G--|----------------|----------------|----------------|----------------|
D--|----------------|----------------|----------------|----------------|
A--|----------------|----------------|----------------|----------------|
E--|5---------------|5---------------|5--------------3|5---------------|(x2)
"Imma keep on tryin..."

    1 + 2 + 3 + 4 + |1 + 2 + 3 + 4 + |1 + 2 + 3 + 4 + |
e--|----------------|----------------|----------------|
B--|----------------|----------------|----------------|
G--|----------------|----------------|----------------|
D--|----------------|----------------|----------------|
A--|----------------|----------xx14/-|2-2-2-2-6-6-6-6-|
E--|5---------------|5---------xx12/-|0-0-0-0-4-4-4-4-|
"As long as it takes us sayin 'one more time'..."
    

Chorus (same as 1st chorus)


Bridge
    1234|1234|1234|1 + 2 + 3 + 4 + |
e--|----|----|----|----------------|
B--|----|----|----|----------------|
G--|----|----|----|--------5-------|
D--|----|----|----|------5---53----|
A--|7---|----|----|--3-5-------53--|
E--|5---|----|---3|5--------------3|
"Saaaaaame thing..."

    1234|1234|1 2 3 4 |1 + 2 + 3 + 4 + |
e--|----|----|--------|----------------|
B--|----|----|--------|----------------|
G--|----|----|--------|----------------|
D--|----|----|--------|----------------|
A--|----|----|-----14/|2-2-2-2-6-6-6-6-|
E--|----|----|-----12/|0-0-0-0-4-4-4-4-|
"Saaaaaame thing..."
    
    1 + 2 + 3 + 4 + |1 + 2 + 3 + 4 + |1 + 2 + 3 + 4 + |1 + 2 + 3 + 4 +  
e--|----------------|----------------|----------------|----------------|
B--|----------------|----------------|----------------|----------------|
G--|----------------|----------------|----------------|----------------|
D--|----------------|----------------|----------------|----------------|
A--|----------------|----------------|----------------|------------5---|
E--|5---------------|5---------------|5--------------3|5---------------|
"We want money for healthcare..."

    1 + 2 + 3 + 4 + |1 + 2 + 3 + 4 + |1 + 2 + 3 + 4 + |1 + 2 + 3 + 4 +  
e--|----------------|----------------|----------------|----------------|
B--|----------------|----------------|----------------|----------------|
G--|----------------|----------------|----------------|----------------|
D--|----------------|----------------|----------------|----------------|
A--|----------------|----------------|----------------|----------------|
E--|5---------------|5---------------|5--------------3|5---------------|
"We say yes to grassroots organization..."

Outro
(does this part remind anyone else of Killin In the Name by Rage Against the Machine? Anyone?)
    1 2 3 4 |1 2 3 4 |1 2 3 4 |1 2 3 4 |
e--|--------|--------|--------|--------|
B--|--------|--------|--------|--------|
G--|--------|--------|--------|--------|
D--|--------|--------|--------|--------|
A--|--------|--------|--------|--------|
E--|--------|--------|--------|--------|
"Who let 'em overthrow..."

    1 + 2 + 3 + 4 + |1 + 2 + 3 + 4 + |1 + 2 + 3 + 4 + |1 + 2 + 3 + 4 +  
e--|----------------|----------------|----------------|----------------|
B--|----------------|----------------|----------------|----------------|
G--|----------------|----------------|----------------|----------------|
D--|----------------|----------------|----------------|------------14/-|
A--|----------------|----------------|----------------|------------14/-|
E--|5---------------|5---------------|5--------------3|5-----------12/-|
"Who let 'em overthrow..."

    1 + 2 + 3 + 4 + |1 + 2 + 3 + 4 + |1 + 2 + 3 + 4 + |1 + 2 + 3 + 4 +  1
e--|----------------|----------------|----------------|----------------|
B--|----------------|----------------|----------------|----------------|
G--|----------------|----------------|----------------|--------5-------|---
D--|----------------|----------------|----------------|------5---53----|---
A--|-------3-3-3-3--|-------5-5-5-5--|-------7-7-7-7--|--3-5-------53--|---
E--|55-355---------3|55-555---------3|55-355---------3|5--------------3|5--
"Don't let them assassinate Hugo Chavez..."

Enjoy!  
            
Hard to play? Try these video lessons and learn fast. | Correct




comments powered by Disqus
↑ Back to top | Tablatures and chords are parodies/interpretations of the original songs. You may use it for private study, scholarship, research or language learning purposes only