» » »

Same Thing Bass tabs (ver.1)

Artists:  A B C D E F G H I J K L M N O P Q R S T U V W X Y Z # 

Same Thing Bass tabs (ver.1)

Flobots
Rating:
5/5 (2 votes)

Hard to play? Try these video lessons and learn fast.
                :....Flobots - Same Thing Bass Tab....:


Intro:

G|----------------------------------------------|
D|-----------5--10---7-5------------------------|
A|-------3-5-------------7-5--------------------|
E|-3h5-----------------------3h5----------------|

Verse:

G|-------------------------------|
D|-------------------------------|
A|-0---0---0---------------------|
E|------------3h5----------------| x3

G|-----------------------------------|
D|-----------------------------------|
A|-0---0---0-------------------------|
E|------------0000-4444-5------------|

Chorus:

G|--------------------------------------------|
D|-----------------------5-10-7-5-------------|
A|-------------------3-5----------7-5---------|
E|-3h5----3h5----3h5------------------3h5-----| x1


G|----------------------|
D|----------------------|
A|----------------------|
E|-3h5----3h5----0~--5--|

[Verse]

[Chorus]

Same Thing, (US is not us):

G|------------------------------|
D|---------5-10-7-5-------------|
A|-----3-5----------7-5---------|
E|-3h5------------------3h5-----|

G|--------------|
D|--------------|
A|--------------|
E|-0000-4444-5--|

[Verse]

Bridge/Outro (But don't let them assassinate Jugo Chavez):

G|--------------------------------------------------------|
D|--------------------------------------------------------|
A|-----------3-3-3-3----------5-5-5-5----------7-7-7-7----|
E|-3h55-55-5---------3h55-55-5--------3h55-55-5-----------|

G|------------------------------|
D|---------5-10-7-5-------------|
A|-----3-5----------7-5---------|
E|-3h5------------------3h5-----|


I'm pretty sure this is 100% correct. If for some odd reason it isn't, leave a comment.
            
Hard to play? Try these video lessons and learn fast. | Correct




comments powered by Disqus
↑ Back to top | Tablatures and chords are parodies/interpretations of the original songs. You may use it for private study, scholarship, research or language learning purposes only