» » »

Rise Bass tabs (ver.1)

Artists:  A B C D E F G H I J K L M N O P Q R S T U V W X Y Z # 

Rise Bass tabs (ver.1)

Flobots
Rating:
2/5 (4 votes)

Hard to play? Try these video lessons and learn fast.
                Cool song.

Update: 2-25-09
Chorus has been fixed, the verse has been fixed.

Intro
G|----------------|
D|2-2-2-2---------|
A|----------------|
E|--------4-4-4-4-|
Play that twice, go into this for rest of song

G|----------------|
D|2-2-2-24--------|
A|----------------|
E|--------4-4-4-4-|

Sometimes This
G|----------------|
D|----------------|
A|----------------|
E|0-0-0-02-4-4-4-4|

Slide at chorus
G|----------------|
D|2-2-2-24--------|
A|-----------7/11-|
E|--------4-4-----|
That is 11, not two ones.
            
Hard to play? Try these video lessons and learn fast. | Correct




comments powered by Disqus
↑ Back to top | Tablatures and chords are parodies/interpretations of the original songs. You may use it for private study, scholarship, research or language learning purposes only