>
 >
Same Thing

Same Thing Guitar Tabs

Flobots - Same Thing chords, tabs, tablatures, lyrics

Guitar lessons | Add/correct | Request | Top 50 tabs Artists:  A B C D E F G H I J K L M N O P Q R S T U V W X Y Z 0-9

Same Thing Guitar Tabs – Flobots

CD, Sheet music, Poster

Do you like Same Thing? Share with your friends now
Bass TabsBass Tabs v2TabsTabs v2
Same Thing 
Flobots


Intro
e|------------------------|
B|------------------------|
G|------------5-----------|
D|----------5---7-5-------|
A|------5-7---------7-5---|
E|--5-7-------------------|

e|------------------------|
B|------------------------|
G|------------------------|
D|------------------------|
A|------------------------|
E|--3h5----5----5----3h5--|


Verse (“Somewhere between prayer and revolution.....”) 


Verse (“Yo Joe let it blow with convulsive force.....”) 
e|---------------|     |--1st--|--------2nd---------|
B|---------------|     |-------|--------------------|
G|---------------|     |-------|--1-1-1-1--6-6-6-6--|
D|---------------| x2  |-------|--2-2-2-2--7-7-7-7--|
A|---------------|     |-------|--2-2-2-2--7-7-7-7--|
E|--5----5----5--|     |--3h5--|--0-0-0-0--5-5-5-5--|


Chorus (“Saying the same things over again.....”)
e|----------------------------------------------|
B|----------------------------------------------|
G|-------------------------------5--------------|
D|-----------------------------5---7-5----------|
A|-------------------------3-5---------7-5------|
E|--5----3h5----3h5----3h5-----------------3h5--|

e|-------------------------|
B|-------------------------|
G|---------------------1~--|
D|---------------------2~--|
A|---------------------2~--|
E|--3h5----3h5----12/--0~--|


Verse (“How many times can the line divide?.....”)
e|--------------------------|
B|--------------------------|
G|--------------------------|
D|--------------------------|
A|--------------------------|
E|--3--5--------------------|

e|---------------|     |--x2---|--------3rd---------|
B|---------------|     |-------|--------------------|
G|---------------|     |-------|--1-1-1-1--2-2-2-2--|
D|---------------| x3  |-------|--2-2-2-2--2-2-2-2--|
A|---------------|     |-------|--2-2-2-2--0-0-0-0--|
E|--5----5----5--|     |--3h5--|--0-0-0-0-----------|


Chorus (“Saying the same things over again.....”)
e|----------------------------------------------|
B|----------------------------------------------|
G|-------------------------------5--------------|
D|-----------------------------5---7-5----------|
A|-------------------------3-5---------7p5------|
E|--5----3h5----3h5----3h5-----------------3h5--|

e|-------------------------|
B|-------------------------|
G|---------------------1~--|
D|---------------------2~--|
A|---------------------2~--|
E|--3h5----3h5----12/--0~--|


Bridge (“Same thing.....”)
e|----------------------------------------------|
B|----------------------------------------------|
G|-------------------------------5--------------|
D|-----------------------------5---7-5----------|
A|-------------------------3-5---------7p5------|
E|--5------------------3h5-----------------3h5--|

e|----------------------------------------------|
B|----------------------------------------------|
G|----------------------------1-1-1-1--2-2-2-2--|
D|----------------------------2-2-2-2--2-2-2-2--|
A|----------------------------2-2-2-2--0-0-0-0--|
E|----------------------------0-0-0-0-----------|


Verse (“We want money for healthcare and public welfare.....”)
B|----------------------------------------------|
G|----------------------------------------x-7^--|
D|----------------------------------------x-7^--|
A|----------------------------------------------|
E|--5-------------------------------------------|

e|----------------------|
B|----------------------|
G|----------------------|
D|----------------------|
A|----------------------|
E|--5----5----5----3h5--|


Verse (“Who let them overthrow Jacobo Arbenz?.....”)




Verse (“Who let them overthrow Kwame Nkrumah?.....”)
e|----------------------|
B|----------------------|
G|----------------------|
D|----------------------|
A|----------------------|
E|--5----5----5----3h5--|


Verse (“Well don’t let them assassinate Hugo Chavez....”)
E|--------------------------------------------------------------------|
B|--------------------------------------------------------------------|
G|--------------------------------------------------------------------|
D|--------------------------------------------------------------------|
A|-------------------3-3-3-3-------------5-5-5-5-------------7-7-7-7--|
E|--12/----5-5--5-5-------------5-5--5-5------------5-5--5-5----------|

e|---------------------------|
B|---------------------------|
G|------------5--------------|
D|----------5---7-5----------|
A|------3-5---------7p5------|
E|--3h5-----------------3h5--|





Comments


Popular Flobots tabs & chords
Anne Braden Bass Tabs
Anne Braden 1 Bass Tabs
Anne Braden 3 Bass Tabs
Combat 4 Bass Tabs
Mayday!!! Bass Tabs
Same Thing 1 Bass Tabs
Handlebars 1 Tabs
Handlebars 4 Tabs
Rise 1 Tabs
White Flag Warrior Tabs


Song lyrics



↑ Back to top | Tablatures and chords are parodies/interpretations of the original songs. You may use it for private study, scholarship, research or language learning purposes only
© 2014 AZChords.com Contact us | Privacy policy | DMCA | Add/correct tabs | Request tabs | Top 50 tabs