» » »

Same Thing Bass tabs (ver.2)

Artists:  A B C D E F G H I J K L M N O P Q R S T U V W X Y Z # 

Same Thing Bass tabs (ver.2)

Flobots
Rating:
0/5 (0 votes)

Hard to play? Try these video lessons and learn fast.
                Great song, easy bass part. 

Standard Tuning (EADG)

Intro
      1 + 2 + 3 + 4 +
G----|--------5-------|--
D----|------5---53----|--
A----|--3-5-------53--|--
E---3|5--------------3|5-

    1 + 2 + 3 + 4 + |1 + 2 + 3 + 4 + |1 + 2 + 3 + 4 + |1 + 2 + 3 + 4 +  
G--|----------------|----------------|----------------|----------------|
D--|----------------|----------------|----------------|----------------|
A--|----------------|----------------|----------------|----------------|
E--|5---------------|5---------------|5--------------3|5---------------|

Verse 
    1 + 2 + 3 + 4 + |1 + 2 + 3 + 4 + |1 + 2 + 3 + 4 + |1 + 2 + 3 + 4 +  
G--|----------------|----------------|----------------|----------------|
D--|----------------|----------------|----------------|----------------|
A--|----------------|----------------|----------------|----------------|
E--|5---------------|5---------------|5--------------3|5---------------|(x3)

    1 + 2 + 3 + 4 + |1 + 2 + 3 + 4 + |1 + 2 + 3 + 4 + |1 + 2 + 3 + 4 +  
G--|----------------|----------------|----------------|----------------|
D--|----------------|----------------|----------------|----------------|
A--|----------------|----------------|----------------|----------------|
E--|5---------------|5---------------|5-----------12/-|0-0-0-0-4-4-4-4-|

Chorus
    1 + 2 + 3 + 4 + |1 + 2 + 3 + 4 + |1 + 2 + 3 + 4 + |1 + 2 + 3 + 4 + |  
G--|----------------|----------------|----------------|--------5-------|
D--|----------------|----------------|----------------|------5---53----|
A--|----------------|----------------|----------------|--3-5-------53--|
E--|5--------------3|5--------------3|5--------------3|5--------------3|

    1 + 2 + 3 + 4 + |1 + 2 + 3 + 4 + |1 + 2 + 3 + 4 + |1 + 2 + 3 + 4 +  
G--|----------------|----------------|----------------|----------------|
D--|----------------|----------------|----------------|----------------|
A--|----------------|----------------|----------------|----------------|
E--|5--------------3|5--------------3|5-----------12/-|0(hold)--------0|

Verse 2
    1 + 2 + 3 + 4 + |1 2 3 4 |1 2 3 4 |1 2 3 4  
G--|----------------|--------|--------|--------|
D--|----------------|--------|--------|--------|
A--|----------------|--------|--------|--------|
E--|5---------------|--------|--------|--------|

    1 + 2 + 3 + 4 + |1 + 2 + 3 + 4 + |1 + 2 + 3 + 4 + |1 + 2 + 3 + 4 +  
G--|----------------|----------------|----------------|----------------|
D--|----------------|----------------|----------------|----------------|
A--|----------------|----------------|----------------|----------------|
E--|5---------------|5---------------|5--------------3|5---------------|(x2)

    1 + 2 + 3 + 4 + |1 + 2 + 3 + 4 + |1 + 2 + 3 + 4 + |
G--|----------------|----------------|----------------|
D--|----------------|----------------|----------------|
A--|----------------|----------------|----------------|
E--|5---------------|5-----------12/-|0-0-0-0-4-4-4-4-|

Chorus (same as 1st chorus)

Bridge
    1 2 3 4 |1 2 3 4 |1 2 3 4 |1 + 2 + 3 + 4 + |
G--|--------|--------|--------|--------5-------|
D--|--------|--------|--------|------5---53----|
A--|--------|--------|--------|--3-5-------53--|
E--|5-------|--------|-------3|5--------------3|

    1 2 3 4 |1 2 3 4 |1 2 3 4 |1 + 2 + 3 + 4 + |
G--|--------|--------|--------|----------------|
D--|--------|--------|--------|----------------|
A--|--------|--------|--------|----------------|
E--|5-------|--------|--------|0-0-0-0-4-4-4-4-|

    1 + 2 + 3 + 4 + |1 + 2 + 3 + 4 + |1 + 2 + 3 + 4 + |1 + 2 + 3 + 4 +  
G--|----------------|----------------|----------------|----------------|
D--|----------------|----------------|----------------|----------------|
A--|----------------|----------------|----------------|------------5---|
E--|5---------------|5---------------|5--------------3|5---------------|

    1 + 2 + 3 + 4 + |1 + 2 + 3 + 4 + |1 + 2 + 3 + 4 + |1 + 2 + 3 + 4 +  
G--|----------------|----------------|----------------|----------------|
D--|----------------|----------------|----------------|----------------|
A--|----------------|----------------|----------------|----------------|
E--|5---------------|5---------------|5--------------3|5---------------|

Outro
(does this part remind anyone else of Killin In the Name by Rage Against the Machine? Anyone?)

    1 2 3 4 |1 2 3 4 |1 2 3 4 |1 2 3 4 |
G--|--------|--------|--------|--------|
D--|--------|--------|--------|--------|
A--|--------|--------|--------|--------|
E--|--------|--------|--------|--------|

    1 + 2 + 3 + 4 + |1 + 2 + 3 + 4 + |1 + 2 + 3 + 4 + |1 + 2 + 3 + 4 +  
G--|----------------|----------------|----------------|----------------|
D--|----------------|----------------|----------------|----------------|
A--|----------------|----------------|----------------|----------------|
E--|5---------------|5---------------|5--------------3|5-----------12/-|

    1 + 2 + 3 + 4 + |1 + 2 + 3 + 4 + |1 + 2 + 3 + 4 + |1 + 2 + 3 + 4 +  1
G--|----------------|----------------|----------------|--------5-------|---
D--|----------------|----------------|----------------|------5---53----|---
A--|-------3-3-3-3--|-------5-5-5-5--|-------7-7-7-7--|--3-5-------53--|---
E--|55-355---------3|55-555---------3|55-355---------3|5--------------3|5--

Enjoy!
            
Hard to play? Try these video lessons and learn fast. | Correct




comments powered by Disqus
↑ Back to top | Tablatures and chords are parodies/interpretations of the original songs. You may use it for private study, scholarship, research or language learning purposes only