>
 >
Go Your Own Way 4

Go Your Own Way 4 Bass Tabs

Fleetwood Mac - Go Your Own Way 4 chords, tabs, tablatures, lyrics

Guitar lessons | Add/correct | Request | Top 50 tabs Artists:  A B C D E F G H I J K L M N O P Q R S T U V W X Y Z 0-9

Go Your Own Way 4 Bass Tabs – Fleetwood Mac

CD, Sheet music, Poster

Do you like Go Your Own Way 4? Share with your friends now
Bass TabsBass Tabs v2Bass Tabs v3Bass Tabs v4Bass Tabs v5ChordsChords v2TabsTabs v2Ukulele
Band : Fleetwood Mac
Song : Go your own way
Bass Tabs


Verse: 00:04 
G|------------------------------------------------------------------------|-
D|------------------------------------------------------------------------|-
A|-8888888888888------------------------888888/888888---------------------|-
E|----------------8888888--666666666666-----------------8888888--666666666|-

G|----------------|-  Pre-chorus
D|----------------|-
A|-8888-55/8/7/5-|-
E|---------------|-


Chorus (x3): 00:33                      |1 and |2
G|-----------------------------------------------|
D|------------5L--3/----------------7L--5/-------|
A|-8L--7/5----------7/5/3--3/3-3/3--------8/7/5--|
E|--------5/6------------------------------------|

                                                |3
G|-----------------------------------------------|
D|------------5L--3/----------------7L--5/-------|
A|-8L--7/5----------7/5/3--3/3-3/3--------8/7/8--|
E|--------5/6------------------------------------|


Verse: 00:54 
G|------------------------------------------------------------------------|-
D|------------------------------------------------------------------------|-
A|-8888888888888------------------------888888/888888---------------------|-
E|----------------8888888--666666666666-----------------8888888--666666666|-

G|----------------|-  Pre-chorus
D|----------------|-
A|-8888-55/8/7/5-|-
E|---------------|-


Chorus (x3): 01:23                      |1 and |2
G|-----------------------------------------------|
D|------------5L--3/----------------7L--5/-------|
A|-8L--7/5----------7/5/3--3/3-3/3--------8/7/5--|
E|--------5/6------------------------------------|

                                                |3
G|-----------------------------------------------|
D|------------5L--3/----------------7L--5/-------|
A|-8L--7/5----------7/5/3--3/3-3/3--------8/7/8--|
E|--------5/6------------------------------------|


Interlude: 01:43

G|------------------------------------------------------------------------|-
D|------------------------------------------------------------------------|-
A|-8888888888888------------------------888888/888888---------------------|-
E|----------------8888888--666666666666-----------------8888888--666666666|-

G|----------------|-  Pre-chorus
D|----------------|-
A|-8888-55/8/7/5-|-
E|---------------|-



Chorus (x3): 02:13                      |1 and |2
G|-----------------------------------------------|
D|------------5L--3/----------------7L--5/-------|
A|-8L--7/5----------7/5/3--3/3-3/3--------8/7/5--|
E|--------5/6------------------------------------|

                                                |3
G|-----------------------------------------------|
D|------------5L--3/----------------7L--5/-------|
A|-8L--7/5----------7/5/3--3/3-3/3--------8/7/8--|
E|--------5/6------------------------------------|



Guitar Solo 02:40 and final chorus (x4) 03:17  (like chorus until the end 03:51)

G|-----------------------------------------------|
D|------------5L--3/----------------7L--5/-------|
A|-8L--7/5----------7/5/3--3/3-3/3--------8/7/5--|
E|--------5/6------------------------------------|


Tanner notes for this song : 

- /  fast change
- L  Longer note





Comments


Popular Fleetwood Mac tabs & chords
The Chain 4 Bass Tabs
Caroline Chords
Crystal 1 Chords
Songbird 1 Chords
Songbird 2 Chords
I Loved Another Woman Tabs
Landslide 1 Tabs
Love That Burns Tabs
Stop Messing Around Tabs
Stumble Tabs


Song lyrics



↑ Back to top | Tablatures and chords are parodies/interpretations of the original songs. You may use it for private study, scholarship, research or language learning purposes only
© 2014 AZChords.com Contact us | Privacy policy | DMCA | Add/correct tabs | Request tabs | Top 50 tabs