» » »

Fleetwood Mac, Go Your Own Way Bass tabs (ver.1)

Artists:  A B C D E F G H I J K L M N O P Q R S T U V W X Y Z # 

Go Your Own Way Bass tabs (ver.1)

Fleetwood Mac Tabs
 Rating:
3.6/5 (7 votes)
Go Your Own Way lessons Tabs too difficult? Try these video lessons and learn fast
                

Tuning: Standard

Song length: 3.37 (Fades out)


Verse:
G|-----------------------------------------------------------------------|
D|-----------------------------------------------------------------------|
A|-----------------------3333332-1111111111111111111111-3----------------|
E|1111111111111111111111----------------------------------111111111111111|

G|-----------------------------------------------------------------------|
D|---------------------------------------------------3-3---3---2---------|
A|------------------3333332-1111111111111111111111-3-----3---3---3-------|
E|11111111111111111------------------------------------------------------|

Chorus:
G|-----------------------------------------------------------------------|
D|---------------3/5-3-2-0-------------5/7-5-----------------------------|
A|-5-8-7-5-5-0-1-----------3-333333333-------8-7-------------------------|
E|-----------------------------------------------------------------------|

Bridge:
G|-----------------------------------------------------------------------|
D|-----------------------------------------------------------------------|
A|-----------------------3333332-1111111111111111111111-3----------------|
E|1111111111111111111111----------------------------------111111111111111|

G|-----------------------------------------------------------------------|
D|---------------------------------------------------3-3---3---2---------|
A|------------------3333332-1111111111111111111111-3-----3---3---3-------|
E|11111111111111111------------------------------------------------------|

Solo/Ending:
G|-----------------------------------------------------------------------|
D|-----------------------------------------------------------------------|
A|-5555555-0-1111111-2-33333333-2-33333-2-5555555-0-1111111-2-33333333333|
E|-----------------------------------------------------------------------|

Note: Spacings withing the tab may not be acurate to your play style (they're not to 
either), however, I figured they'd help break up the tab a bit and make it easier to read.

Play Order:

Intro (Guitar Only)
Verse
Chorus x3
Verse
Chorus x3
Bridge
Chorus x3
Solo/Ending

Thanks for using this tab guys! It is my first attempt at writing a tab for one of these 
though I have got a few other songs tabbed which may appear over the next couple of weeks.

Any feedback on this would be appreciated, as would any tab requests (no guarentees, but 
see what I can do!)

Rock On!
            
Submit corrections

comments powered by Disqus
↑ Back to top | Fleetwood Mac Bass for Go Your Own Way. Lyrics for acoustic guitar and electric guitar. Tablatures and chords are parodies/interpretations of the original songs. You may use it for private study, scholarship, research or language learning purposes only