» » »

Fleetwood Mac, Go Your Own Way Bass tabs (ver.2)

Artists:  A B C D E F G H I J K L M N O P Q R S T U V W X Y Z # 

Go Your Own Way Bass tabs (ver.2)

Fleetwood Mac Tabs
 Rating:
4.5/5 (8 votes)
Go Your Own Way lessons Tabs too difficult? Try these video lessons and learn fast
                ------------------------------------------------------------------
			     Go Your Own Way - Fleetwood Mac
------------------------------------------------------------------


Tuning: Standard

This song has a great chorus bassline.

Verse:
G|-----------------------------------------------------------------------|
D|-----------------------------------------------------------------------|
A|-------------------------3333332-1111111111111111111111-3--------------|
E|1111111111111111111111-3---------------------------------11111111111111|

G|-----------------------------------------------------------------------|
D|---------------------------------------------3-3---3-------------------|
A|-----------3333332-1111111111111111111111-3------1---1-3-1-------------|
E|11111111-3-------------------------------------------------------------|

Chorus (x3):
G|-----------------------------------------------------------------------|
D|---------------3/5-3-----------------5/7-5-----------------------------|
A|-5-8-7-5-5-0-1-------5-0-3-333333333-------8-7-------------------------|
E|-----------------------------------------------------------------------|

Verse
Chorus (x3)

Interlude:
G|-----------------------------------------------------------------------|
D|-----------------------------------------------------------------------|
A|-----------------------3333332-1111111111111111111111-3----------------|
E|1111111111111111111111----------------------------------111111111111111|

G|-----------------------------------------------------------------------|
D|--------------------------------------------------------3-3---3--------|
A|-----------------------3333332-1111111111111111111111-3-----1---1-3-1--|
E|1111111111111111111111-------------------------------------------------|

Chorus (x3)

Guitar Solo (play until ending)
G|-----------------------------------------------------------------------|
D|-----------------------------------------------------------------------|
A|-5555555-0-1111111-2-33333333-2-33333-2-5555555-0-1111111-2-33333333333|
E|-----------------------------------------------------------------------|

Ending:
G|-----------------------|
D|-----------------------|
A|-----------------------|
E|1111111111111111111111-|


| /  slide up
| \  slide down
| h  hammer-on
| p  pull-off
| ~  vibrato
| +  harmonic
| x  Mute note
==========================================================================
            
Submit corrections

comments powered by Disqus
↑ Back to top | Fleetwood Mac Bass for Go Your Own Way. Lyrics for acoustic guitar and electric guitar. Tablatures and chords are parodies/interpretations of the original songs. You may use it for private study, scholarship, research or language learning purposes only