» » »

The Chain Bass tabs (ver.1)

Artists:  A B C D E F G H I J K L M N O P Q R S T U V W X Y Z # 

The Chain Bass tabs (ver.1)

Fleetwood Mac
Rating:
0/5 (0 votes)

Hard to play? Try these video lessons and learn fast.
                Transcribed & submitted by Greg Eden

A classic song recently perfomed live on the album "The Dance".  The 
tuning for this song is unusual so a lower tone can be achieved.  To 
achieve this, tune the E string down to C.  Have fun!

NB. / = slide up

Intro:

G :----------------|----------------|----------------|----------------|
D :0---0---0---0---|0---0---0---0---|0---0---0---0---|0---0---0---0---|
A :----------------|----------------|----------------|----------------|
C :----------------|----------------|----------------|----------------|

G :----------------|----------------|----------------|----------------|
D :0---0---0---0---|0---0---0---0---|0---0---0-------|----------------|
A :----------------|----------------|----------------|----------------|
C :----------------|----------------|------------2---|----------------|

Verse:
   Listen to the wind blow...
G :----------------|----------------|----------------|----------------|
D :0---0---0---0---|5---5---5---5---|----------------|0---0---0---0---|
A :----------------|----------------|3---3---1-------|----------------|
C :----------------|----------------|------------7---|----------------|

G :----------------|----------------|----------------|----------------|
D :0---0---0---0---|5---5---5---5---|----------------|0---0-----------|
A :----------------|----------------|3---3---1-------|----------------|
C :----------------|----------------|------------7---|--------2-------|

Chorus:

   And if you...
G :----------------|----------------|----------------|----------------|
D :----------------|----------------|----5-3-0-------|----------------|
A :----------------|----------------|5-----------1--1|1--/3--33--33--3|
C :7--77--77--77--7|7--57--77--57--7|----------------|----------------|


G :----------------|----------------|----------------|----------------|
D :----------------|----------------|----5-3-0-------|----------------|
A :----------------|----------------|5-----------1--1|1--/3--33--33--3|
C :7--77--77--77--7|7--57--77--57--7|----------------|----------------|

Instrumental:

G :----------------|----------------|----------------|----------------|
D :----------------|----------------|----------------|----------------|
A :----------------|----------------|----------------|----------------|
C :2---------------|2---------------|2---------------|0---------------|

G :----------------|----------------|----------------|----------------|
D :----------------|----------------|----------------|----------------|
A :----------------|----------------|---------0-1----|0-------0-------|
C :2---------------|-----------/7---|7----7-7--------|--7-5-7-----2---|

G :----------------|----------------|----------------|----------------|
D :----------------|----------------|------------0---|----------------|
A :----------------|----------0-1---|0-------0-------|----------------|
C :--------4-5-7---|7-----7-7-------|--7-5-7-----2---|-----------/7---|

								   The
G :----------------|----------------|----------7-5---|5---------------|
D :----------------|------------0-0-|0-0-0-0-0-----7-|--7-5-----------|
A :----------0-1---|0-------0-------|----------------|------8-7-5-----|
C :7-----7-7-------|--7-5-7---------|----------------|------------7---|

   Cha-ain...
G :----------------|----------------|----------------|----------------|
D :----------------|------------0-0-|0-0-0-0---0-----|--------5-7-----|
A :----------0-1---|0-------0-------|------------3-0-|3---5-8---------|
C :7-----7-7-------|--7-5-7---------|----------------|------------7---|

G :----------------|----------------|----------7-5---|5---------------|
D :----------------|------------0-0-|0-0-0-0-0-----7-|--7-5-----------|
A :----------0-1---|0-------0-------|----------------|------8-7-5-----|
C :7-----7-7-------|--7-5-7---------|----------------|------------7---|

G :----------------|----------------|----------------|----------------|
D :----------------|------------0-0-|0-0-0-0---0-----|--------5-7-----|
A :----------0-1---|0-------0-------|------------3-0-|3---5-8---------|
C :7-----7-7-------|--7-5-7---------|----------------|------------7---|

G :----------------|----------------|----------------|----------------|
D :----------------|------------0-0-|0-0-0-0-----0---|--0-----0-----0-|
A :----------0-1---|0-------0-------|----------3-----|3-----3-----3---|
C :7-----7-7-------|--7-5-7---------|----------------|----------------|

G :----------------|----------------|
D :----------------|------------0---|
A :----------0-1---|0-------0-------|
C :7-----7-7-------|--7-5-7-------2-|

Song structure:
Intro
Verse
Chorus
Intro
Verse
Chorus
Instrumental
            
Hard to play? Try these video lessons and learn fast. | Correct




comments powered by Disqus
↑ Back to top | Tablatures and chords are parodies/interpretations of the original songs. You may use it for private study, scholarship, research or language learning purposes only