» » »

Go Your Own Way Tabs (ver.2)

Artists:  A B C D E F G H I J K L M N O P Q R S T U V W X Y Z # 

Go Your Own Way Tabs (ver.2)

Fleetwood Mac
Rating:
5/5 (6 votes)

Hard to play? Try these video lessons and learn fast.
                Intro is an F chord palm muted.

F                                               C    Bb
Lov-ing you,  is-n't  the right  thing   to  do.
Bb                                     F
How can I,  ev-er change things that I feel?
F                                          C    Bb
If I could,  may-be I'd give you my world.
Bb                                         F  C   Dm
How can I,  when you won't take it  from  me?

Chorus 1

Dm         Bb       C                    Dm
You can go your own way,   don't go a-way.
Dm           Bb      C                     Dm
You can call it,  an-oth - er lone-ly day.
Dm         Bb       C                F
You can go your own way,  don't go a-way.

F                                            C    Bb
Tell me why,    ev'-ry-thing turned  a-round.
E-------------|
B---------13--|============================= hold note
G-------------|
D-------------|
A-------------|
E-------------|
Bb                                              F
Pack-ing up, shack-ing up 's all you  wan-na do.
F                                            C    Bb
If I could, ba-by, I'd  give  you  my  world.
Bb                                       F  C   Dm
O-pen up, ev'-ry-thing's wait-ing for you.

Chorus 2

Dm         Bb         C                   Dm
You can go your  own  way,   don't go a-way.
D             Bb     C                    Dm
You can call  it  an-oth - er lone-ly day.
Dm         Bb         C                 F
You can go your  own  way,  don't go a-way.

  F
E-----------------|
B-----------------|
G-----------------|
D-----------------|
A-3---3-3--3-3-3--| 3x palm muted.
E-----------------|

  F               C Bb             Bb F         C F
E---------------------------------------------------------|
B---------------------------------------------------------|
G---------------------------------------------------------|
D-----3-5>(7)>5-3---------------------7>(8)>7-5-7vvvvvvv--|
A-3-5-------------3-1vvvvvvvv----5h8----------------------|
E---------------------------------------------------------|

  F C                  Bb        Bb C          F
E----------------------------------------------------|
B----------------------------------------------------|
G-2--------------------------------------------------|
D---5>(7)>5>(7)>5-3-----------------3\5-7-3h5--3vvvv-|
A-------------------3--1vvvvvvvv---------------------|
E----------------------------------------------------|

Chorus 3

Dm         Bb         C                   Dm
You can go your  own  way,  don't  go a-way.
E--------------------------------------------12>(13)===-|
B-------------------------------------------------------|
G-------------------------------------------------------|
D-------------------------------------------------------|
A-------------------------------------------------------|
E-------------------------------------------------------|

Dm            Bb    C
You can call  it an-oth - er lone-ly day,
C                   Dm
An-oth - er lone-ly day.
E-------------20==>(22)==--------------------------------------|
B-------------------------13==>(15)vvvv>13-13>(15)==>13(15)>13-|
G--------------------------------------------------------------|
D--------------------------------------------------------------|
A--------------------------------------------------------------|
E--------------------------------------------------------------|

Dm          Bb         C                 Dm
You can go  your own   way, don't go  a-way.
Dm           Bb     C
You can call it  an-oth - er lone-ly day.

End solo.
E----------------------------------------------------------------|
B----------------------------------------------------------------|
G----------------------------------------------------------------|
D-----------------------------3--------------3---3-5--5--5>(7)>5-|
A-3-3--3-3--3-3--3-3-5--5-3-5---5p3h5---3h5----5-----------------|
E----------------------------------------------------------------|

E---------------------------------------------------------|
B---------------------------------------------------------|
G---------------------------------------------------------|
D-5>(7)>5-3----------3--------------3-5>(7)>5p3-5--3h5--5-|
A-----------5--5-3-5----5p3h5---3h5-----------------------|
E---------------------------------------------------------|

E-------------------------------------------|
B-8>(10)-(10)-(10)-(10)-(10)-(10)-(10)-(10)-|
G-------------------------------------------|
D-------------------------------------------|
A-------------------------------------------|
E-------------------------------------------|

E---------------------------------------------|
B-(10)-(10)--(10)--(10)-(10)--(10)--(10)-(10)-|
G---------------------------------------------|
D---------------------------------------------|
A---------------------------------------------|
E---------------------------------------------|

E----------------------------------8---8---8---8-8--8-8--8-|
B-(10)>8-8-6-8>(10)(10)>8-8-6-8\10--10--10--10---10---10---|
G----------------------------------------------------------|
D----------------------------------------------------------|
A----------------------------------------------------------|
E----------------------------------------------------------|

E-8--8-8--8-8------8------8-------------5-8-5-8>(10)--(10)-(10)-(10)-|
B-10---10---8h10p8-8h10p8-8h10p8-8-6-8-------------------------------|
G--------------------------------------------------------------------|
D--------------------------------------------------------------------|
A--------------------------------------------------------------------|
E--------------------------------------------------------------------|

E-(10)-(10)-(10)--(10)-(10)-(10)--(10)-(10)-(10)--(10)-(10)-(10)-|
B----------------------------------------------------------------|
G----------------------------------------------------------------|
D----------------------------------------------------------------|
A----------------------------------------------------------------|
E----------------------------------------------------------------|

                                        You can go your own way.
E-(10)--(10)>8-5-----------13>(15)===>13-13>(15)==>13-13h15p13----------|
B----------------8-6-------------------------------------------15-13----|vvv
G--------------------7-5------------------------------------------------|
D-----------------------------------------------------------------------|
A-----------------------------------------------------------------------|
E-----------------------------------------------------------------------|

                                          You can call it,
E---------------------------------------------------------|
B-8>(10)>8--8>(10)>8>(10)>8-6-----------------------------|
G-----------------------------7---------------------------|
D---------------------------------3h5p3-------------------|
A-----------------------------------------3h5p3-----------|
E---------------------------------------------------------|
  an-oth - er  lone-ly day.   R&F

h = hammer on, p = pull off, vvv = vibrato, \ = slide up,
<( )> = bend to note in ( ) and release, == = hold note or bend,
E,B,G,D,A,E, = guitar strings.

Chord diagrams.

F      Bb     C      Dm
133211 113331 032010 x00231
            
Hard to play? Try these video lessons and learn fast. | Correct




comments powered by Disqus
↑ Back to top | Tablatures and chords are parodies/interpretations of the original songs. You may use it for private study, scholarship, research or language learning purposes only