» » »

Fleetwood Mac, Go Your Own Way Bass tabs (ver.3)

Artists:  A B C D E F G H I J K L M N O P Q R S T U V W X Y Z # 

Go Your Own Way Bass tabs (ver.3)

Fleetwood Mac Tabs
Rating:
5/5 (5 votes)
Go Your Own Way lessons Tabs too difficult? Try these video lessons and learn fast
                -------------------------------------------------------------------------------
			     Go Your Own Way - Fleetwood Mac
-------------------------------------------------------------------------------

Tuning: Standard

Verse
G|--------------------------------------------------------------------------|
D|--------------------------------------------------------------------------|
A|----------3(15X)-2-1(15X)-------------------------------------------------|
E|-1(15X)-3-----------------3-1(15X)----------------------------------------|

Chorus
G|--------------------------------------------------------------------------|
D|---------------3s5-3-------------5s7-5------------------------------------|
A|-5-5-8-7-5-1-1-------5-3--3-3--3-------8-7--------------------------------|
E|--------------------------------------------------------------------------|
            
Submit corrections

comments powered by Disqus
↑ Back to top | Fleetwood Mac Bass for Go Your Own Way. Lyrics for acoustic guitar and electric guitar. Tablatures and chords are parodies/interpretations of the original songs. You may use it for private study, scholarship, research or language learning purposes only