>
 >
PhäNomenal Egal 1

PhäNomenal Egal 1 Guitar Tabs

Farin Urlaub - PhäNomenal Egal 1 chords, tabs, tablatures, lyrics

Guitar lessons | Add/correct | Request | Top 50 tabs Artists:  A B C D E F G H I J K L M N O P Q R S T U V W X Y Z 0-9

PhäNomenal Egal 1 Guitar Tabs – Farin Urlaub

CD, Sheet music, Poster

Do you like PhäNomenal Egal 1? Share with your friends now
Tabs
Phänomenal egal
(M/T: Urlaub)


Anm.:Da hier alle Akkorde zerlegt sind, schreibe ich nur die Begleitungen anstatt der Akkorde auf


Intro:

1:-----0---|----0---|----0---|----0---|----0---|----0---|----0---|----0---|
2:-4-----0-|4-----0-|4-----0-|4-----0-|2-----0-|2-----0-|2-----0-|2-----0-|
3:---4-----|--4-----|--4-----|--4-----|--2-----|--2-----|--2-----|--2-----|
4:---------|--------|--------|--------|--------|--------|--------|--------|
5:---------|--------|--------|--------|--------|--------|--------|--------|
6:---------|--------|--------|--------|--------|--------|--------|--------|

1:-----0---|----0---|----0---|----0---|----0---|----0---|----0---|----|
2:-4-----0-|4-----0-|4-----0-|4-----0-|2-----0-|2-----0-|2-----0-|2---|
3:---4-----|--4-----|--4-----|--4-----|--2-----|--2-----|--2-----|--2-|
4:---------|--------|--------|--------|--------|--------|--------|----|
5:---------|--------|--------|--------|--------|--------|--------|----|
6:---------|--------|--------|--------|--------|--------|--------|----|

Begleitung Strophe:
4x:                                       2x:
   E         f#        A         H         c#        H         A
1:-----0---|-----2---|-----0---|---------|---------|---------|-----------------|
2:-----0---|-----2---|-----0---|-----4---|-----5---|-----4---|-----2---0---2---|
3:---------|---------|---------|-----4---|-----6---|-----4---|-----2---2---2---|
4:---2-----|---4-----|---2-----|---4---4-|---6-----|---4-----|---2-------------|
5:---------|---------|-0-----0-|-2-------|-4-----4-|-2-----2-|-0-----0---0---0-|
6:-0-----0-|-2-----2-|---------|---------|---------|---------|-----------------|
    c#       H         A         H
1:---------|---------|---------|---------|
2:-----5---|-----4---|-----2---|-----4---|
3:-----6---|-----4---|-----2---|-----4---|
4:---6-----|---4-----|---2-----|---4-----|
5:-4-----4-|-2-----2-|-0-----0-|-2-----2-|
6:---------|---------|---------|---------|


Begleitung Bridge:
   E       E5           E6           E7                A           a
1:-0-0--0--0--|-0-0--0--0--|-0-0--0--0--|-0-0--0--0--|-0---0-0--0--0----0-------|
2:-0-0--0--1--|-1-1--1--2--|-2-2--2--3--|-3-3--3--3--|-2---2-2--2--1------1-----|
3:-1-1--1--1--|-1-1--1--1--|-1-1--1--1--|-1-1--1--1--|-2---2-2--2--2--------2---|
4:-2-2--2--2--|-2-2--2--2--|-2-2--2--2--|-2-2--2--2--|-2---2-2--2--2----------2-|
5:-2-2--2--2--|-2-2--2--2--|-2-2--2--2--|-2-2--2--2--|-0---0-0--0--0------------|
6:-0-0--0--0--|-0-0--0--0--|-0-0--0--0--|-0-0--0--0--|--------------------------|
   f#        g#        A         H
1:-----2---|-----4---|---------|---------|
2:-----2---|-----4---|-----0---|-----4---|
3:---------|---------|-----2---|-----4---|
4:---4-----|---6-----|---2-----|---4-----|
5:---------|---------|-0-----0-|-2-----2-|
6:-2-----2-|-4-----4-|---------|---------|


Begleitung Outro:
   c#                  C                   G                   A
1:---------|---------|-----3---|-----3---|-----3---|-----3---|---------|---------|
2:-----5---|-----5---|-----5---|-----5---|-----3---|-----3---|-----5---|-----5---|
3:-----6-6-|-----6---|---------|-------5-|-------4-|---------|-----6---|-----6---|
4:---6-----|---6---6-|---5---5-|---5-----|---5-----|-------5-|-------7-|---7-----|
5:-4-------|-4-------|-3-------|-3-------|---------|---5-----|---7-----|-------7-|
6:---------|---------|---------|---------|-3-------|-3-------|-5-------|-5-------|
   c#                  C                   G                   A               E
1:---------|---------|-----3---|-----3---|-----3---|-----3---|-----5-5---5---|-0-|
2:-----5---|-----5---|-----5---|-----5---|-----3-3-|-----3-3-|---5-5-5---5---|-0-|
3:-----6-6-|-----6---|-------5-|---------|---------|---4-----|---------------|-1-|
4:---6-----|---6---6-|---5-----|---5---5-|---5-----|---------|---------------|-2-|
5:-4-------|-4-------|-3-------|-3-------|---------|---------|---------------|-2-|
6:---------|---------|---------|---------|-3-------|-3-------|-5-------0---2-|-0-|



1.Strophe:
E               f#     A           H                E     f#
  zwar lieg ich nachts stundenlang wach und denk an dich
        A            H             E
doch in wirklichkeit lieb ich dich nicht
             f#          A               H               E    f#
zwar gibt es keine schönere frau auf der ganzen welt für mich
        A            H             c#
doch in wirklichkeit lieb ich dich nicht
           H           A
eigentlich bist du mir egal
c#            H             A
   eigentlich bist du nicht mein typ
        c#    H            A            H       E(-->2.Strophe)
und auf jeden fall bin ich gar nicht in dich verliebt


2.Strophe:
E               f#       A            H             E   f#
  ich steh zwar ab und zu einfach nur so vor deiner tür
            A            H              E
doch im prinzip will ich gar nichts von dir
     f#        A             H        E    f#
dein foto hängt wirklich nur zufällig hier
       A            H              c#
im prinzip will ich gar nichts von dir
           H           A
eigentlich bist du mir egal
c#            H                  A
   eigentlich bist du nicht mein typ
        c#    H            A            H       E(-->Bridge)
und auf jeden fall bin ich gar nicht in dich verliebt


Bridge:
E             E5                 E6          E7
  du bist nur luft für mich ganz unwichtig total banal
    A                   a
ich nehm dich gar nicht wahr
        f#     g#   A      H    E(-->3.Strophe)
du bist mir einfach phänomenal egal


3.Strophe:
E            f#           A                 H             E     f#
  ich muß es dir gestehen, selbst wenn dein herz daran zerbricht
   A            H             E
in wirklichkeit lieb ich dich nicht
           f#          A             H           E    f#
du hast so schöne augen und ein noch schöneres gesicht
   A            H             c#
in wirklichkeit lieb ich dich nicht
           H           A
eigentlich bist du mir egal
c#            H             A
   eigentlich bist du nicht mein typ
        E     H                 A            H
und auf jeden fall bin ich fast gar nicht in dich...


Outro:
      c#        C         G         A         c#        C         G
...verliebt, verliebt, verliebt, verliebt, verliebt, verliebt, verliebt -
     A                    E
fast gar nicht in dich verliebt





Comments


Popular Farin Urlaub tabs & chords
Abschiedslied Bass Tabs
Atras Chords
Immer Noch Chords
Ok Chords
Augenblick Tabs
Buch Zum Lesen Tabs
GlüCklich 1 Tabs
Ok Tabs
Ok 2 Tabs
Stein Des Anstosses Tabs


Song lyrics



↑ Back to top | Tablatures and chords are parodies/interpretations of the original songs. You may use it for private study, scholarship, research or language learning purposes only
© 2014 AZChords.com Contact us | Privacy policy | DMCA | Add/correct tabs | Request tabs | Top 50 tabs