» » »

Farin Urlaub, GlüCklich Tabs (ver.1)

Artists:  A B C D E F G H I J K L M N O P Q R S T U V W X Y Z # 

GlüCklich Tabs (ver.1)

Farin Urlaub Tabs
 Rating:
4/5 (4 votes)
GlüCklich lessons Tabs too difficult? Try these video lessons and learn fast
1
                Farin Urlaub
Glücklich
Endlich Urlaub


Intro
--3---3---3---3----1----1----1-----1--------------------------------8-----
---3---3---3----3----1----1----1-----1--4------4-----6------6-------8-----
-5---5---4---4----3----3----2-----2-------5------5-----5------5-----9-----
---------------------------------------6-----6-----6-----6----------10----

Fill 1
-------------------------------------------
-------------------------------------------
--10--9-10-9-------------------------------
----------------10-8-----------------------
----------------------10-8-10-8------------
-----------------------------------11-8----

Guitar 2
--------------------------------
--------------------------------
---------------------10---------
-10--5---8---3---6---10--10-----
-10--5---8---3---6----8--10-----
--8--3---6---1---4--------8-----

Part 1 (finger picking)
-----------------|--------------|--------------|----------------	
---------0-1-(2x)|------0-1-(2x)|-------0-1-(2x|-------1--------
------2-----2----|----0-----0---|-----0-----0--|-----2--2-------
----2---------2--|---2--------2-|---0--------0-|----3-----3-----
--0--------------|-3------------|--------------|----------------
-----------------|--------------|-3------------|--1---------1---

-----------------------1----
--------6--------------1----
------7--7----(4x)-----2----
----7-----7------------3----
--5--------------------3----
-----------------------1----



Chorus
--------------------------------------------
--------------------------------------------
----------------------------8------10-------
--10---8---10-8--3--10---6--8---8--10-------
--10---8---10-8--3--10---6--6---8---8-------
---8---6----8-6--1---8---4------6-----------

then part1

part 2
----------------------------------
----------------------------------
---------5------------------------
--3--5---5--5---3---5-----10------
--3--5---3--5---3---5-----10------
--1--3------3---1---3-----8-------

part 3
--------------------------
--------------------------
---------10---------------
-----6---10--10-----------
-----6---8---10-----------
-----4-------8------------



Songorder:

1.	Intro + fill
2.	intro +fill + guitar 2
3.	strange drums + part 1 fades in
4.	Chorus 
5.	part 1
6.	chorus
7.	part 2
8.	intro + fill
9.	part 3
10.	chorus


bist du fleischermeister? studierst du medizin?
bist du ein zugereister, oder kommst du aus berlin?
bist du dominatrix oder doch eher devot?
bist du pianistin, bist du hubschrauberpilot? 

es ist egal, was du bist, hauptsache ist, es macht dich glücklich
es ist egal, was du bist, hauptsache ist, es macht dich glücklich 

bist du süchtig nach liebe? oder bist du misanthrop?
bist du vielleicht ein model? oder eher ein zyklop?
bist du gern im schatten oder immer tief gebräunt?
bist du ein gourmet, bist du imbißbudenfreund? 

es ist egal, was du bist, hauptsache ist, es macht dich glücklich
es ist egal, was du ißt, hauptsache ist, es macht dich dicklich 
laß dir bloß keinen scheiß andrehn: 
das leben ist schön 

es ist egal, was du bist, hauptsache ist, es macht dich glücklich
es ist egal, was du fährst, solang du nur klärst, es hat ein rücklicht
und falls du mal kein rücklicht hast, dann nimm eine taschenlampe
            
Submit corrections

comments powered by Disqus
↑ Back to top | Farin Urlaub Tabs for GlüCklich. Lyrics for acoustic guitar and electric guitar. 1 Tablatures and chords are parodies/interpretations of the original songs. You may use it for private study, scholarship, research or language learning purposes only