>
 >
Abschiedslied

Abschiedslied Bass Tabs

Farin Urlaub - Abschiedslied chords, tabs, tablatures, lyrics

Guitar lessons | Add/correct | Request | Top 50 tabs Artists:  A B C D E F G H I J K L M N O P Q R S T U V W X Y Z 0-9

Abschiedslied Bass Tabs – Farin Urlaub

CD, Sheet music, Poster

Do you like Abschiedslied? Share with your friends now
Bass Tabs
Track: Abschiedslied


This is a really fun song with a *massive* bassline, very prominant 
indeed. It's supposed to be played with a pick but fingers works fine 
too.

Intro/Refrain
G ---------------|---------------|---------------|
D ---------------|---------------|---------------|
A -3--3-3/5\3--3-|---------------|-5--5-5/7\5--3-|
E ---------------|-3--3-3/5\3--3-|---------------|

G -------------------|
D -------------------|
A ---------------3-3-|
E -1------1-1/3------|

Bridge 1
G --------------|
D --------------|
A -(3)--3---3---|
E --------------|

Verse Intro
G ------------|------------|------------|-------------|
D ------------|------------|------------|-------------|
A ------------|-3--3---3-3-|------------|-5--5--5-5-5-|
E -5--5---5-5-|------------|-3--3---3-3-|-------------|

Verse 1 (play 3 times)
G --------------------|--------------------|
D --------------------|----55--------------|
A -----77-------------|-33----3--3-5-0-3-2-|
E -55-----5---5--7575-|--------------------|

	    1st 	    2nd 	  3rd 
G ----------!--------------!-------------!-------------!--|
D ----------!--------------!-------------!-------------!--|
A ----55----!--------------!-p3-3h5p3-3--!-p3-p3-3h5p3-!--|
E -33----3--!-3--3-5-3-2-3-!-------------!-------------!--|

  	    1st       2nd
G ---------!---------!------------------12/14-!
D ----77---!---------!------------11/12-------!
A -55----5-!-575-575-!------11/12-------------!
E ---------!---------!-0-10-------------------!

  3rd
G ---------------!-|
D ------55----55-!-|
A ---77----77----!-|
E -5-------------!-|

Bridge 2
G -----------------|-----------------|
D -----------------|-----------------|
A -----------------|-----------------|
E -1-1-1-1-1-1-1-1-|-1-1-1-1-1-1-1-1-|	(16x)

Verse2	    1st       2nd          3rd 
G ---------!--------!-------------!---------------!-|
D ---------!--------!-------------!---------------!-|
A ----77---!--------!-------------!---------------!-|
E -55----5-!-5p3h5--!-5p3h5-5p3h5-!-5-3-5-5-5-3-5-!-|


G ----------------------|
D -----55---------------|
A --33----3---3-5-3p2-0-|
E ----------------------|

   	    1st      2nd 	 3rd 
G ----------!-------!-----------!-------------!-|
D ----------!-------!-----------!-------------!-|
A ----55----!-----3-!-----5-----!-----5-----5-!-|
E -33----3--!-5p3---!-3h5---3h5-!-0-3---0-3---!-|

  	    1st             2nd 
G ---------!---------------!---------------------12/14!
D ----77---!---------------!---------------11/12------!
A -55----5-!-5---5-7-5-----!-0-------11/12------------!
E ---------!---8-------8-7-!---10-10------------------!

  3rd 
G -----------------!--|
D ---------2-------!--|
A -0-5-3-5---5-3-2-!--|
E -----------------!--|

Bridge 3
G ---------------|-------------|
D ---------------|-------------|
A --3------------|--5----------|
E ---------3-----|---------1---|

Outro (2x)
G ---------------|---------------|-----------------------------|
D ---------------|---------------|-----------------------------|
A -3--3-3/5\3--3-|---------------|5-5-5-5-5-5-------------3--3-|
E ---------------|-3--3-3/5\3--3-|-------------1-1--1-1/3------|





Comments


Popular Farin Urlaub tabs & chords
Apocalypse Wann Anders Chords
Ok Chords
Petze Chords
Widmmawv Chords
Lieber Staat Tabs
Ok Tabs
Ok 1 Tabs
Sumisu Tabs
Zehn Tabs
Zehn Live Tabs


Song lyrics



↑ Back to top | Tablatures and chords are parodies/interpretations of the original songs. You may use it for private study, scholarship, research or language learning purposes only
© 2014 AZChords.com Contact us | Privacy policy | DMCA | Add/correct tabs | Request tabs | Top 50 tabs