» » »

Ph Nomenal Egal Tabs (ver.2)

Artists:  A B C D E F G H I J K L M N O P Q R S T U V W X Y Z # 

Ph Nomenal Egal Tabs (ver.2)

Farin Urlaub
Rating:
0/5 (0 votes)

Hard to play? Try these video lessons and learn fast.
                "(2)
Intro:

e|--0----0----0----0-----|--0----0----0----0-----|
B|---0----0----0----0----|---0----0----0----0----|
G|----8----8----8----8---|----6----6----6----6---|
D|-----9----9----9----9--|-----7----7----7----7--|
A|-----------------------|-----------------------|
E|-----------------------|-----------------------|

e|--0----0----0----0-----|--0----0----0----0-----|
B|---0----0----0----0----|---0----0----0----0----|
G|----8----8----8----8---|----6----6----6----6---|
D|-----9----9----9----9--|-----7----7----7----7--|
A|-----------------------|-----------------------|
E|-----------------------|-----------------------|

Have Fun!
"            
Hard to play? Try these video lessons and learn fast. | Correct




comments powered by Disqus
↑ Back to top | Tablatures and chords are parodies/interpretations of the original songs. You may use it for private study, scholarship, research or language learning purposes only