» » »

Farin Urlaub, Ph Nomenal Egal Tabs (ver.3)

Artists:  A B C D E F G H I J K L M N O P Q R S T U V W X Y Z # 

Ph Nomenal Egal Tabs (ver.3)

Farin Urlaub Tabs
 Rating:
4/5 (4 votes)
Ph Nomenal Egal lessons Tabs too difficult? Try these video lessons and learn fast
                Farin Urlaub
Phänomenal Egal

Chords used:
		
EADGBE

E        |	022100
F#m      |	244222
A        |	*02220
H        |	*24442
Asus2    |	**22**
C#m      |	*46654
E5       |	*2211*
E6       |	*2212*
E7       |	*2213*
Am       |	*02210
g#m      |	355333
C        |	*32010
G        |	320001


Intro (2x 1#+2#)

#1			        #2
---0-------------		-----0------------
------0----------		--------0---------
---------8-------	4x	-----------6------	4x
------------9----		--------------7---
-----------------		------------------
-----------------		------------------

  E	  f#m	    A	   H
------0--------2--------0---------------
------0--0-----2--------2--2-----4------
----1-----------------2----------4--4---
-----------------4-------------4--------
-------------4------0--------2----------
--0--------2----------------------------


E	     F#m	    A          H                E
Zwar lieg ich nachts stundenlang wach und denk an dich
F#m	A	   H             E	
Doch in Wirklichkeit lieb ich dich nicht
             F#m         A                  H
Zwar gibt es keine schönere Frau auf der ganzen Welt für mich


   A           H	       c#m
----------------------------------------
-------2----------4------------5--------
-------2--2-------4--4---------6--6-----
----2----------4------------6-----------
--0----------2-----------4--------------
----------------------------------------

         A	   H		c#m		
Doch in Wirklichkeit lieb ich dich nicht
	H	     A Asus2 A					
Eigentlich bist du mir egal

	A	Asus2  A	
-----------------------
---------2---0---2-----
---------2---2---2-----
------2----------------
----0------0---0-------
-----------------------

C#m	  H		  A Asus2 A				
Eigentlich bist du nicht mein Typ
	C#m   H		A	    H	      E
Und auf jeden Fall bin ich gar nicht in dich verliebt
												
Ich steh zwar ab und zu einfach nur so vor deiner Tür
Doch im Prinzip will ich gar nichts von dir
Dein Foto hängt wirklich nur zufällig hier
Im Prinzip will ich gar nichts von dir

Eigentlich bist du mir egal
Eigentlich bist du nicht mein Typ
Und auf jeden Fall bin ich gar nicht in dich verliebt

     E             E5             E6	            E7
--------------------------------------------------------------
-----1-----1--------1----1--------2-----2---------3----3------
------0-----0--------1----1--------1-----1---------1----1-----
----2-----2----2---2----2----2---2-----2----2----2----2-----2-
--------------------------------------------------------------
--0-----0----0---0----0-----0---0----0-----0----0----0----0---

E	   E5		    E6	       E7			
Du bist nur Luft für mich ganz unwichtig total ban*l
     A		     am	                         			
Ich nehm dich gar nicht wahr
   E	F#m  g#m	   Asus2	   H			
Du bist mir einfach phänomenal egal
												

Ich muss es dir gestehn, selbst wenn dein Herz daran zerbricht
In Wirklichkeit lieb ich dich nicht
Du hast so schöne Augen und ein noch schöneres Gesicht
In Wirklichkeit lieb ich dich nicht

Eigentlich bist du mir egal
Eigentlich bist du nicht mein Typ

E	     H		     A		H	c#m	
Und auf jeden Fall bin ich fast gar nicht in dich verliebt
C	G	A	c#m       C	     G	
Verliebt, Verliebt, Verliebt, Verliebt, Verliebt, Verliebt
     A			E			
Fast gar nicht in dich verliebt
            
Submit corrections

comments powered by Disqus
↑ Back to top | Farin Urlaub Tabs for Ph Nomenal Egal. Lyrics for acoustic guitar and electric guitar. Tablatures and chords are parodies/interpretations of the original songs. You may use it for private study, scholarship, research or language learning purposes only