» » »

Farin Urlaub, Ok Tabs (ver.2)

Artists:  A B C D E F G H I J K L M N O P Q R S T U V W X Y Z # 

Ok Tabs (ver.2)

Farin Urlaub Tabs
 Rating:
4/5 (4 votes)
Ok lessons Tabs too difficult? Try these video lessons and learn fast
1
                Ich habe festgestellt das keiner Farin Urlaubs "OK" richtig getabt hat


das werde ich jetzt verbessern

	Em	C	    G	        Hm

e------0--0--0--0--0-------------------3-3-3-3-3---------------------
a------2--2--2--2--2----3-3-3-3-3------5-5-5-5-5--------2-2-2-2-2----
d-----(2)(2)(2)(2)(2)---5-5-5-5-5-----------------------4-4-4-4-4----
g--------------------------------------------------------------------
h--------------------------------------------------------------------
e--------------------------------------------------------------------
.....................................................................P.M.


Im intro wird das ganze abgedämpft gespielt!
Danach dann offen

	Em	C	     G		Hm
   
e------0--0--0--0--0------------------------3-3-3-3-3---------------------------
a------2--2--2--2--2----3-3-3-3-3-----------5-5-5-5-5------2-2-2-2-2------------
d-----(2)(2)(2)(2)(2)---5-5-5-5-5--------------------------4-4-4-4-4-----f9-----
g---------------------------------------f5----------------------------------f5--
h-----------------------------------f5------------------------------------------
e-------------------------------------------------------------------------------


     das ist eine zweite gitarre die im haupteil spielt
e-------------------------------------------------------------------------------
a-------------------------------------------------------------------------------
d-------------------------------------------------------------------------------
g----------------------------------7--------------------------------------------
h-------------5-7-8-7---5-7-8-7------7-8-7---5-7-8-7----------------------------
e-------------------------------------------------------------------------------






die noten in klammern muss man nicht kann man aber spielen!


Das kleine "f" bedeutet flagolet!

Dabei legt man den finger auf das bundstäbchen aber nur so das die saite gerade 
berührt wird! dadurch schwingt die Saite und ein hoher ton erklingt dies funktioniert
nich auf allen bünden!


Das Solo habe ich nicht Ausgetabt kriege ich auch nicht hin %)
viel spaß beim klampfen!
            
Submit corrections

comments powered by Disqus
↑ Back to top | Farin Urlaub Tabs for Ok. Lyrics for acoustic guitar and electric guitar. 1 Tablatures and chords are parodies/interpretations of the original songs. You may use it for private study, scholarship, research or language learning purposes only